TabNabber Tabs   Musician Supported
  Music Tabs
Espa˝ol English
Franšais Русский
Artist: # A B C D E F G H I J K L M N O P Q R S T U V W X Y Z
guitar

Guitar Tab, Chords



(0 from 0 votes)
127 Views, Last Update 1 month ago
by: Anonymous
guest
[Guest]
[INTRO]
 
E|--11--|--12--|--14--|
B|------|------|------|
G|------|------|------|
D|------|------|------|
A|------|------|------|
E|------|------|------|
 
(Played twice:)
 
E|--7--7-----|-----------|-----------|-------------|-----7-----|-----------|-----------|-------------|
B|-----------|-----9-----|-----7-----|-------------|-----------|-----9-----|-----7-----|-------------|
G|--------9--|--------9--|--------9--|-----9--8h9--|--------9--|--------9--|--------9--|-----9--8h9--|
D|-----------|-----------|-----------|-------------|-----------|-----------|-----------|-------------|
A|-----------|-----------|--9--------|--0----------|-----------|-----------|--9--------|--0----------|
E|--9--------|--0--------|-----------|-------------|--9--------|--0--------|-----------|-------------|
 
 
[VERSE 1]
 
E|-7--7---------|--------------|--------------|------------|----7------|----------|-----------|------------|
B|-------10-----|-9-----10-----|-7-----10-----|-9--7-------|-----------|----9-----|----7------|------------|
G|-----------9--|----9------9--|----9------9--|-------8h9--|-9-----9---|-------9--|-------9---|----9--8h9--|
D|--------------|--------------|--------------|------------|-----------|----------|-----------|------------|
A|--------------|--------------|-9------------|-0----------|-----------|----------|-9---------|-0----------|
E|-9------------|-0------------|--------------|------------|-9---------|-0--------|-----------|------------|
 
E|-9-----7------|--------------|-7------------|------------|----7------|----------|-----------|------------|
B|--------------|-10-----9-----|-------10-----|-9--7-------|-----------|----9-----|----7------|------------|
G|----9-----9---|-----9-----9--|----9------9--|-------8h9--|-9-----9---|-------9--|-------9---|----9--8h9--|
D|--------------|--------------|--------------|------------|-----------|----------|-----------|------------|
A|--------------|--------------|-9------------|-0----------|-----------|----------|-9---------|-0----------|
E|-9------------|-0------------|--------------|------------|-9---------|-0--------|-----------|------------|
 
E|-7--7---------|--------------|--------------|------------|----7------|----------|-----------|------------|
B|-------10-----|-9-----10-----|-7-----10-----|-9--7-------|-9---------|----9-----|----7------|------------|
G|-----------9--|----9------9--|----9------9--|-------8h9--|-------9---|-------9--|-------9---|----9--8h9--|
D|--------------|--------------|--------------|------------|-----------|----------|-----------|------------|
A|--------------|--------------|-9------------|-0----------|-----------|----------|-9---------|-0----------|
E|-9------------|-0------------|--------------|------------|-9---------|-0--------|-----------|------------|
 
E|-9-----7------|--------------|-7------------|------------|----7------|-7--------|-----7-----|------------|
B|--------------|-10-----9-----|-------10-----|-9--7-------|-------10--|----9-----|-------10--|------------|
G|----9-----9---|-----9-----9--|----9------9--|-------8h9--|-9---------|-------9--|-----------|-9-----8h9--|
D|--------------|--------------|--------------|------------|-----------|----------|-----------|------------|
A|--------------|--------------|-9------------|-0----------|-----------|----------|-9---------|-0----------|
E|-9------------|-0------------|--------------|------------|-9---------|-0--------|-----------|------------|
 
 
 
[CHORUS]
 
(Repeat 3x, play second line on last)
 
E|----------|-4---2----|-0---2----|-7--5--4h5--|-4---------4--|-0---------2--|-0------------|--------------|
B|-5---7----|----------|----------|------------|--------------|--------------|--------------|-0------------|
G|----------|----------|----------|------------|-----6---6----|-----4---4----|-------1------|-----2-----2--|
D|---6---6--|---4---4--|----------|------------|---6---6------|---4---4------|-----2---2----|---2-----2----|
A|-4--------|-2--------|---2------|-0----------|-4------------|-2------------|---2-------2--|-0-----0------|
E|----------|----------|-0-----0--|------------|--------------|--------------|-0------------|--------------|
 
E|--0--|
B|--0--|
G|--6--|
D|--6--|
A|--4--|
E|-----|
 
 
[VERSE 2]
 
E|-7------------|--------------|--------------|------------|----7------|-7--------|----7------|------------|
B|-------10-----|-9-----10-----|-7-----10-----|-9--7-------|-------10--|----9-----|-------10--|------------|
G|----9------9--|----9------9--|----9------9--|-------8h9--|-9---------|-------9--|-----------|-9--9--8h9--|
D|--------------|--------------|--------------|------------|-----------|----------|-----------|------------|
A|--------------|--------------|-9------------|-0----------|-----------|----------|-9---------|-0----------|
E|-9------------|-0------------|--------------|------------|-9---------|-0--------|-----------|------------|
 
E|-9-----7------|--------------|-7------------|------------|----7------|----------|-----------|------------|
B|--------------|-10-----9-----|-------10-----|-9--7-------|-----------|----9-----|----7------|------------|
G|----9-----9---|-----9-----9--|----9------9--|-------8h9--|-9-----9---|-8-----9--|-------9---|----9--8----|
D|--------------|--------------|--------------|------------|-----------|----------|-9---------|------------|
A|--------------|--------------|-9------------|-0----------|-----------|----------|-----------|-0----------|
E|-9------------|-0------------|--------------|------------|-9---------|-0--------|-7---------|------------|
 
E|-----0-----|-----0-----|-----0-----|-----0-------|
B|-----------|-----------|-----------|-------------|
G|--------9--|--------8--|--------8--|--------8h9--|
D|-----------|-----------|-----------|-------------|
A|-----------|-----------|-----------|-------------|
E|--7--------|--7--------|--0--------|--7--7--7----|
 
 
 
[BRIDGE CLIMAX]
 
(Repeat 4x, play () on 4th time)
 
E|-(9)---0---|------0---|-------0---|-------0---|-----0-------|-------------|---0---------|---0--------0-|
B|------9-9--|-(7)-7-7--|-(7)--7-7--|-(7)--7-7--|-------4---0-|-------0-----|-------0---0-|--------0-----|
G|-----9---9-|----9---9-|-----8---8-|-----8---8-|---6-----6---|-----4---4---|-----8---8---|------8---8---|
D|-----------|----------|-----------|-----------|-------------|---6-------6-|-------------|--------------|
A|-----------|----------|-----------|-----------|-0-----------|-------------|-------------|--------------|
E|--9--------|--0-------|--7--------|--7--------|-------------|-0-----------|-7-----------|-7------------|
 
(Repeat 4x, play () on 4th time)                                                         (X) (no 7 on last)
 
E|-9---0---|-------7-|-----0----|-----0---|-5---0---5---|-12----11---11----|-7p0---------|-7p0-------(0)----|
B|----9-9--|-9--10---|-7--7-7---|-7--7-7--|-------4---0-|----------0-------|-------0---0-|-------0----0-----|
G|---9---9-|---9--9--|---8----8-|---8---8-|---6-----6---|-------9----9-----|-----8---8---|-----8---8--------|
D|---------|---------|----------|---------|-------------|------------------|-------------|------------------|
A|---------|---------|----------|---------|-0-----------|----11---------11-|-------------|------------------|
E|-9-------|-0-------|-7--------|-7-------|-------------|-0----------------|-7-----------|-7----------------|
 
 
[PRE-ENDING]
 
(Played twice) (apologies for spacing for first two measures; spacing limit)
 
E|-0-------|---------|--------------|-------------|-------------|-------------|-------------|--------------|
B|---------|---------|--------------|-------------|-------------|-------------|-------------|--------------|
G|---999-9-|---999-9-|---9-9-9---9--|---9-9-9-9-9-|---9-9-9---9-|---9-9-9---9-|---9-9-9---9-|---9-9-9-9-9--|
D|---------|---------|---------6----|-6-----------|-------------|-------------|-------------|--------------|
A|------7--|------9--|--------------|-------------|---------7---|---------9---|---------7---|-7------------|
E|-9-------|-7-------|-0------------|-------------|-9-----------|-7-----------|-0-----------|--------------|
 
 
[ENDING]
 
(Played through outro twice)
 
E|-0-------|---000-0-|--------------|-------------|-------------|--------------|-------------|-------------|
B|---------|---------|--------------|-------------|-------------|--------------|-------------|-------------|
G|---999-9-|-8-------|---9-9-9----9-|----9------9-|---9-9-9---9-|---9-9-9---9--|---9-9-9---9-|---9---9---9-|
D|---------|---------|-9------------|------11p9---|-6-----------|-7------------|-6-----------|-6---7---9---|
A|------7--|------9--|---------11---|-11----------|---------7---|---------9----|---------7---|-7-----------|
E|-9-------|-7-------|-0------------|-------------|-9-----------|-7------------|-0-----------|-------------|
 
E|-0-------|---------|--------------|-------------|-0-----------|---0-0--------|-------------|-------------|
B|---------|-7-------|-9---------9--|---9-10p9----|-------------|-8-----10p9---|-------------|-------------|
G|---999-9-|---999-9-|---9-9-9-6----|-6--------9--|---9-9-9---9-|------------9-|---9-9-9---9-|---9-9-9-9-9-|
D|---------|---------|--------------|-------------|-------------|--------------|-9-----------|-------------|
A|------7--|------9--|--------------|-------------|---------7---|-7------------|---------7---|-7-----------|
E|-9-------|-7-------|-0------------|-------------|-9-----------|--------------|-0-----------|-------------|
 
E|----000-0-|---00--0--|---------|--------------|--------------|--------------|-0------------|-------------|
B|----------|-----7----|-7----9--|-9------------|-10-----9---9-|-10-----9-----|--------------|-------------|
G|----------|-8--------|---999-9-|---9-9-9-9-9--|----9-9-------|----9-9-----9-|---9-9-9---9--|---9-9-9-9-9-|
D|-11-------|----------|------6--|-6------------|--------------|--------------|--------------|-------------|
A|-------7--|------9---|---------|--------------|----------7---|----------9---|---------7----|-7-----------|
E|-9--------|-7--------|-0-------|--------------|-9------------|-7------------|-0------------|-------------|
 
E|---777------|---777------|---777------|--------------|---777------|---777------|---777------|----------7---|
B|-------10-9-|-------10-9-|-------10-9-|-9---10---7---|-------10-9-|-------10-9-|-------10-9-|-9---10-------|
G|------------|------------|------------|--------------|------------|------------|------------|--------------|
D|------------|------------|------------|--------------|------------|------------|------------|--------------|
A|------------|------------|------------|--------------|------------|------------|------------|--------------|
E|-9----------|-7----------|-0----------|-0-0----0---0-|-9----------|-7----------|-0----------|-0-0----0-----|
 
 
[OUTRO]
 
 (Play once first time, twice on second time repeat from above. Play second line on second time)
 (Strum to music)
 
E|--0--|--------0-----------|--0---|--0---0---0---|--0--|--5--------------|--0--|-----------------|
B|--0--|--------------7/12--|--12--|--12--10--9---|--0--|-----------------|--0--|--0--------------|
G|--6--|--8-----------------|--9---|--9---9---9---|--6--|--------8-----6--|--1--|--------2-----1--|
D|--7--|--------------------|--9---|--9---9---9---|--7--|-----------------|--2--|-----------2-----|
A|--7--|-----7-----7--------|--11--|--11--11--11--|--7--|-----7-----7-----|--2--|-----2-----------|
E|--5--|--5-----------------|--0---|--0---0---0---|--5--|--0--------------|--0--|--0--------------|
 
       (Repeat and fade away)
E|--0--|--12--12--12-...-12-|
B|--0--|-------------...----|
G|--2--|--9---9---9--...-9--|
D|--2--|-------------...----|
A|--0--|-------------...----|
E|--0--|-------------...----|


Login to Edit
Edit
YouTube
Video
View Sheet Music
Sheet
Music
Print
Speed:
Play Intro (login for the full song)
Play
Intro
Sustain:
Download midi (intro) ...

 Rate:
5 star
4 star
3 star
2 star
1 star
 

Comments (0)
 

No comments yet...

Comment on this tab   -   Unhelpful comments are exterminated.
  Your Guest Name:
      [Member Login]
  Comments:
 

Don't understand the tab?
See "How to Read Guitar Tabs".
Supported tags:
<i>italics</i>
<b>bold</b>
<u>underline</u>
<tab>tab lines</tab>
  Are you a spam robot?

If not, solve the equation:




[286 TabNabbers online]
©2021 TabNabber.com - Musician Supported Contact us Advertising Merchandise Privacy Policy Terms of Use facebook Twitter