TabNabber Tabs   Musician Supported
  Music Tabs
Espa˝ol English
Franšais Русский
Artist: # A B C D E F G H I J K L M N O P Q R S T U V W X Y Z
guitar

Guitar Tab, Chords



(0 from 0 votes)
274 Views, Last Update 24 days ago
by: Anonymous
guest
[Guest]
e|------9-----7-----9-------9-------9-------7-7------7-----7-------7
B|------------------------------------------------------------------
G|--7/9---97---7/9-----7/9----7-7/9-----6/7----6-6/7---6/7--6-6/7--
D|------------------------------------------------------------------
A|------------------------------------------------------------------
E|------------------------------------------------------------------

e|-----5-5------5-----5-------5-----4-4------4-----4--------2
B|-----------------------------------------------------------
G|--4/6----4-4/6---4/6--4-4/6----2/4----2-2/4---2/4---1-1/2--
D|-----------------------------------------------------------
A|-----------------------------------------------------------
E|-----------------------------------------------------------

e|--5/12--1210--109----9/10--109----97--7/9---9--7-5--
B|--7/14--1412--1210--10/12--1210--109--9/10--10-9-7--
G|--------------------------------------------------------
D|--------------------------------------------------------
A|--------------------------------------------------------
E|--------------------------------------------------------

e|--5-5-5--5--7-7/9--7-5--7-7/9--7-5--5/9---9--7-5--
B|--7-7-7--7--9-9/10-9-7--9-9/10-9-7--7/10--10-9-7--
G|--------------------------------------------------
D|--------------------------------------------------
A|--------------------------------------------------
E|--------------------------------------------------

e|-5/12--1--9--10--10/12---5/7--7-7--5/7--7-7-7----7---5---7-7/9---9--7-5
B|-7/14--12-10-12--12/14---7/9--9-9--7/9--9-9-9--9---7---9---9/10--10-9-7
G|-----------------------------------------------------------------------
D|-----------------------------------------------------------------------
A|-----------------------------------------------------------------------
E|-----------------------------------------------------------------------


e|--5--5--5--5/9---9---9---9---
B|--7--7--7--7/11--11--11--11--
G|-----------------------------
D|-----------------------------
A|-----------------------------
E|-----------------------------


Login to Edit
Edit
YouTube
Video
View Sheet Music
Sheet
Music
Print
Speed:
Play Intro (login for the full song)
Play
Intro
Sustain:
Download midi (intro) ...

 Rate:
5 star
4 star
3 star
2 star
1 star
 

Comments (0)
 

No comments yet...

Comment on this tab   -   Unhelpful comments are exterminated.
  Your Guest Name:
      [Member Login]
  Comments:
 

Don't understand the tab?
See "How to Read Guitar Tabs".
Supported tags:
<i>italics</i>
<b>bold</b>
<u>underline</u>
<tab>tab lines</tab>
  Are you a spam robot?

If not, solve the equation:




[54 TabNabbers online]
©2021 TabNabber.com - Musician Supported Contact us Advertising Merchandise Privacy Policy Terms of Use facebook Twitter