TabNabber Tabs   Musician Supported
  Music Tabs
Espa˝ol English
Franšais Русский
Artist: # A B C D E F G H I J K L M N O P Q R S T U V W X Y Z
guitar

Guitar Tab, Chords



(0 from 0 votes)
269 Views, Last Update 20 days ago new
by: Anonymous
guest
[Guest]
B |---------------------------------------------------------------------------|
F#|---------------------------------------------------------------------------|
D |---------------------------------------------------------------5-----3-2---|
A |------------------------------4----1-4--3----------4----1-4--3---3-3-----4-|
E |--3-4-3------3-4-3------3-4-3----------------3-4-3-------------------------|
B |--1-2-1------1-2-1------1-2-1----------------1-2-1-------------------------|
 
B |---------------------------------------------------------------------------|
F#|---------------------------------------------------------------------------|
D |----------------------2--3----5-3--2------6-5--3----3--5-3--2--------------|
A |--4----1-4--3----3--4-------------------3---------------------3--6-5--3----|
E |---------------------------------------------------------------------------|
B |---------------------------------------------------------------------------|
 
B |---------------------------------------------------------------------------|
F#|--------------------------------------------11-10--------------------------|
D |-----------------------------------------10------11-----11-10----10--------|
A |--3--2--3----3-1--4----1-4--3----3-1--4---------------13-------------------|
E |---------------------------------------------------------------------------|
B |---------------------------------------------------------------------------|
 
B |---------------------------------------------------------------------------|
F#|----10-11----13-11--10----14-13--11----13-11-10----------------------------|
D |--11--------------------10-----------------------10--13-12--10----9--------|
A |---------------------------------------------------------------------------|
E |---------------------------------------------------------------------------|
B |---------------------------------------------------------------------------|
 
B |---------------------------------------------------------------------------|
F#|---------------------------------------------------------------------------|
D |---------------------------------------------------------------------------|
A |---------------------------------------------------------------------------|
E |--6-9-8---8-6-9---6-9-8---8-6-9--6--6-9-8---8-6-9--6--6-9-8---8-6-9--------|
B |--4-7-6---6-4-7---4-7-6---6-4-7--4--4-7-6---6-4-7--4--4-7-6---6-4-7--------|


Login to Edit
Edit
YouTube
Video
View Sheet Music
Sheet
Music
Print
Speed:
Play Intro (login for the full song)
Play
Intro
Sustain:
Download midi (intro) ...

 Rate:
5 star
4 star
3 star
2 star
1 star
 

Comments (0)
 

No comments yet...

Comment on this tab   -   Unhelpful comments are exterminated.
  Your Guest Name:
      [Member Login]
  Comments:
 

Don't understand the tab?
See "How to Read Guitar Tabs".
Supported tags:
<i>italics</i>
<b>bold</b>
<u>underline</u>
<tab>tab lines</tab>
  Are you a spam robot?

If not, solve the equation:




[789 TabNabbers online]
©2021 TabNabber.com - Musician Supported Contact us Advertising Merchandise Privacy Policy Terms of Use facebook Twitter