TabNabber Tabs   Musician Supported
  Music Tabs
Espa˝ol English
Franšais Русский
Artist: # A B C D E F G H I J K L M N O P Q R S T U V W X Y Z
guitar

Guitar Tab, Chords



(0 from 0 votes)
1,019 Views, Last Update 5 months ago
by: Anonymous
guest
[Guest]
e|----------------|--------1-1-1-1-|3-3-3-3-3-3-3-3-|3-3-3-3---------|
B|--------3-3-3-3-|1-1-1-1---------|----------------|--------1-------|
G|3-3-3-3---------|----------------|----------------|----------3-2---|
D|----------------|----------------|----------------|--------------3-|
A|----------------|----------------|----------------|----------------|
E|----------------|----------------|----------------|----------------|
 
e|----------------|----------------|-----/6-5-6-5-6-|-----/6-5-6-5-6-|
B|------3-1-------|--------1-------|----------------|----------------|
G|0---0-------3---|2---2-2-----3-2-|0---0-----------|0---0-----------|x3
D|----------------|----------------|----------------|----------------|
A|----------------|----------------|----------------|----------------|
E|----------------|----------------|----------------|----------------|

e|----------------|--------1-1-1-1-|3-3-3-3-3-3-3-3-|3-3-3-3---------|
B|--------3-3-3-3-|1-1-1-1---------|----------------|--------1-------|
G|3-3-3-3---------|----------------|----------------|----------3-2---|
D|----------------|----------------|----------------|--------------3-|
A|----------------|----------------|----------------|----------------|
E|----------------|----------------|----------------|----------------|
 
Repeat from *, but last line play :
 
e|----------------|--------1-1-1-1-|3-3-3-3-3-3-3-3-|3-3-3-3-3-3-3-3-|
B|--------3-3-3-3-|1-1-1-1---------|----------------|----------------|
G|3-3-3-3---------|----------------|----------------|----------------|
D|----------------|----------------|----------------|----------------|
A|----------------|----------------|----------------|----------------|
E|----------------|----------------|----------------|----------------|



Login to Edit
Edit
YouTube
Video
View Sheet Music
Sheet
Music
Print
Speed:
Play Intro (login for the full song)
Play
Intro
Sustain:
Download midi (intro) ...

 Rate:
5 star
4 star
3 star
2 star
1 star
 

Comments (0)
 

No comments yet...

Comment on this tab   -   Unhelpful comments are exterminated.
  Your Guest Name:
      [Member Login]
  Comments:
 

Don't understand the tab?
See "How to Read Guitar Tabs".
Supported tags:
<i>italics</i>
<b>bold</b>
<u>underline</u>
<tab>tab lines</tab>
  Are you a spam robot?

If not, solve the equation:




[14310 TabNabbers online]
©2021 TabNabber.com - Musician Supported Contact us Advertising Merchandise Privacy Policy Terms of Use facebook Twitter