TabNabber Tabs   Musician Supported
  Music Tabs
Espa˝ol English
Franšais Русский
Artist: # A B C D E F G H I J K L M N O P Q R S T U V W X Y Z
guitar

Guitar Tab, Chords



(5 from 1 votes)
638 Views, Last Update 1 month ago
by: Gman
guest
[Guest]
e|-----------|-2---2--------3--2--0------------|-----------------------------0--3-|
B|----5--8---|-2---2------4----0--0---------1--|-0--0---------------0------0------|
G|--4--------|-3---3----4------0--0-------0----|-2--2---------------0-------------|
D|-----------|-2------------------------2------|-1--1-------1/5--4--2-------------|
A|-----------|-4------2------------------------|----------0-----------------------|
E|-----------|-2---------------0------0--------|-2------2--------0-------0--------|
 
e|--2---2--------3--2--0------0---|-----------0--3--2--0---------7-----|
B|--2---2------4----3--0----0---3-|-3--2----2-------2--2-------8-------|
G|--3---3----4------1--1----------|-0--0------------0--0-----9---------|
D|--2-----------------------------|-2--2-------------------------------|
A|--4------2--------------2-------|-0-----0---------0------0-----------|
E|--2---------------0-------------|------------------------------------|
 
e|-7--5--7--5---10---7--|-5--3-----------5--3--5--3---8---5--|-3--1-----------|
B|-7--7--7--------------|-3--3-----------5--5--5--5----------|-1--1-----------|
G|-5--5--5--------------|-4--4-----------3--3--3--3----------|-2--2-----------|
D|-0--------0-----------|------------------------------------|----------------|
A|----------------------|---------6-5-4--3--------3----------|-------3-4-3-2--|
E|----------------------|-3-----3----------------------------|-1--------------|
 
e|-3-1--0--1-3--4-|-5-0------------------2-3-2-------|--------2-/-7-------|
B|-3-3--3--3-3----|-----1--------------2-----2-5-2---|-4----4-------------|
G|-1-1--0--1-1----|-------2----------3-------3-----3-|-2--4---------------|
D|----------------|---------2------------------------|-4------------------|
A|-1-------1------|-0---------3-0--------------------|-2------------------|
E|----------------|---------------3--2-------2-------|--------------------|
 
  [A2]
e|-----------|-2---2--------3--2--0------------|-----------------------------0--3-|
B|----5--8---|-2---2------4----0--0---------1--|-0--0---------------0------0------|
G|--4--------|-3---3----4------0--0-------0----|-2--2---------------0-------------|
D|-----------|-2------------------------2------|-1--1-------1/5--4--2-------------|
A|-----------|-4------2------------------------|----------0-----------------------|
E|-----------|-2---------------0------0--------|-2------2--------0-------0--------|
 
e|--2---2--------3--2--0------0---|-----------0--3--2--0---------7--|
B|--2---2------4----3--0----0---3-|-3--2----2-------2--2-------8----|
G|--3---3----4------1--1----------|-0--0------------0--0-----9------|
D|--2-----------------------------|-2--2----------------------------|
A|--4------2--------------2-------|-0-----0---------0------0--------|
E|--2---------------0-------------|---------------------------------|
 
e|-7-5-7---5-3-5---3-5-5---3-1-3--|-1-3-1---3-1-3---0-3-0---3-0-3--|-0-2-0---2-0-2-|
B|-7-7-7---3-3-3---5-5-5---1-1-1--|-3-3-3---3-3-3---2-2-2---2-2-2--|-1-1-1---1-1-1-|
G|-5-5-5---4-4-4---3-3-3---2-2-2--|-1-1-1---1-1-1---0-0-0---0-0-0--|-0-0-0---0-0-0-|
D|-0------------------------------|--------------------------------|---------------|
A|-----------------3--------------|-1-------1-------1-------1------|-1-------1-----|
E|---------3---------------1------|--------------------------------|---------------|
 
e|-3--0-------------2------2-5----|-0-----<12>---------|
B|-0---0----------2---5--4-----4--|-0--0--<12>---------|
G|-0----0-------3--------2--------|----0--<12>---------|
D|-2-----2---------------4--------|--------------------|
A|-2------2--------------2--------|--------------------|
E|---------3-0--2-----------------|-0------------------|
 
  [B]
e|-5--3----------------------|-1-0-----------------------0-|--------0----0----5-3-0-------|
B|-3--3-------3---6--5----5--|-3-3-------3---3--2-----2--0-|-3-0--1-1-1--1----------1-----|
G|-4--4-----4--------3----3--|-1-1-----1--------0-----0--2-|-2-2--2-2-2--0--0---------2-0-|
D|--------3----------5----5--|-------0----------2-----2----|-3-0--0---0-------------------|
A|------5---------3----------|-----2---------0-------------|------------------------------|
E|-3--------------------3----|-0-------------------3-----1-|------2------3----------------|


Login to Edit
Edit
YouTube
Video
View Sheet Music
Sheet
Music
Print
Speed:
Play Intro (login for the full song)
Play
Intro
Sustain:
Download midi (intro) ...

1 Votes
5 star: 100%  (1)
4 star:  (0)
3 star:  (0)
2 star:  (0)
1 star:  (0)
0 star:  (0)
 Rate:
5 star
4 star
3 star
2 star
1 star
 

Comments (0)
 

No comments yet...

Comment on this tab   -   Unhelpful comments are exterminated.
  Your Guest Name:
      [Member Login]
  Comments:
 

Don't understand the tab?
See "How to Read Guitar Tabs".
Supported tags:
<i>italics</i>
<b>bold</b>
<u>underline</u>
<tab>tab lines</tab>
  Are you a spam robot?

If not, solve the equation:




[397 TabNabbers online]
©2021 TabNabber.com - Musician Supported Contact us Advertising Merchandise Privacy Policy Terms of Use facebook Twitter