TabNabber Tabs   Musician Supported
  Music Tabs
Espa˝ol English
Franšais Русский
Artist: # A B C D E F G H I J K L M N O P Q R S T U V W X Y Z
guitar

Guitar Tab, Chords



(0 from 0 votes)
207 Views, Last Update 13 days ago new updated
by: Anonymous
guest
[Guest]
e|-2---2--------3--2--0-----------|----------------------------0--3|
B|-2---2------4----0--0---------1-|-0--0---------------0-----0-----|
G|-3---3----4------0--0-------0---|-2--2---------------0-----------|
D|-2------------------------2-----|-1--1-------1/5--4--2-----------|
A|-4------2-----------------------|----------0---------------------|
E|-2---------------0------0-------|-2------2--------0------0-------|
 
e|--2---2--------3--2--0------0---|-----------0--3--2--0---------7-|
B|--2---2------4----3--0----0---3-|-3--2----2-------2--2-------8---|
G|--3---3----4------1--1----------|-0--0------------0--0-----9-----|
D|--2-----------------------------|-2--2---------------------------|
A|--4------2--------------2-------|-0-----0---------0------0-------|
E|--2---------------0-------------|--------------------------------|


Login to Edit
Edit
YouTube
Video
View Sheet Music
Sheet
Music
Print
Speed:
Play Intro (login for the full song)
Play
Intro
Sustain:
Download midi (intro) ...

 Rate:
5 star
4 star
3 star
2 star
1 star
 

Comments (0)
 

No comments yet...

Comment on this tab   -   Unhelpful comments are exterminated.
  Your Guest Name:
      [Member Login]
  Comments:
 

Don't understand the tab?
See "How to Read Guitar Tabs".
Supported tags:
<i>italics</i>
<b>bold</b>
<u>underline</u>
<tab>tab lines</tab>
  Are you a spam robot?

If not, solve the equation:




[649 TabNabbers online]
©2021 TabNabber.com - Musician Supported Contact us Advertising Merchandise Privacy Policy Terms of Use facebook Twitter