TabNabber Tabs   Musician Supported
  Music Tabs
Espa˝ol English
Franšais Русский
Artist: # A B C D E F G H I J K L M N O P Q R S T U V W X Y Z
guitar

Guitar Tab, Chords



(0 from 0 votes)
229 Views, Last Update 13 days ago new
by: Anonymous
guest
[Guest]
[YouTube intro]
e|-----------------------------|
B|-----------------------------|
G|-----------------------------|x2
D|-----------------------------|
A|----4-------------4----------|
D|-4-----4--0--2h4-----4--0--2-|
 
[Intro]
e|-----------------|
B|-2/5--------7--2-|
G|------------6----|x2
D|-4/7--9\7--------|
A|-----------------|
D|------9\7--------|
 
"Many go, I survived"
e|-----------------------------------------------------------------------------------------------|
B|-2/5-----------------2/5----------------2-------------2-------------2---------------2----------|
G|-------------4-4-2-------------4-----------2-------------2-------------2---------------2-------|
D|-4/7---9\7-----------4/7--9\7-------4---------4---4---------4---4---------4\2---4---------4----|
A|------------------------------------4-------------4-------------4---------------4--------------|
D|-------9\7----------------9\7-------4-------------4-------------4---------------4--------------|
 
"If I made a milli then my momma made a milli"
e|------------------------------------------|
B|----------------7--2-------2/5-------7--2-|
G|-----6\2--------6--------------------6----|x2
D|-4----------7----------2---------0--------|
A|-4----------7----------2---------0--------|
D|-4----------7----------2---------0--------|
 
"I don't wanna wait too long"
e|-------------------------------------------------------|
B|-2--------------2------------2----------2---------2----|
G|----2--------------2------------2----------2--6------2-|
D|-------4/2---4--------4---4--------4/2-----------------|
A|-------------4------------4----------------------------|
D|-------------4------------4----------------------------|
 
"How long can we dance for"
e|-------------------------------------------------------|
B|-------------------------------------------------------|
G|-----6-------6-------6-------6-------6-------6-------6-|
D|-4---4---7---4---2---4---0---4---4---4---7---4---2---4-|
A|-4-------7-------2-------0-------4-------7-------2-----|
D|-4-------7-------2-------0-------4-------7-------2-----|
 
"Have you seen a maaaaan down"
e|-----------------------------------------------------------------|
B|------------------------------------------------2--------2-------|
G|-----6---2----------6---2----------6---2-----------2--4-----2----|
D|-4---4------4---4---4------4---4---4-------4\2--------2--------4-|
A|-4--------------4--------------4---------------------------------|
D|-4--------------4--------------4---------------------------------|
 
"Clearly on my next step"
*Starts off soft, gets louder*
e|---------------------------------------------------------------------------|
B|--------5-----7---------2--5--------7--2----------5------7---------2--5----|
G|-----6-----6-----6-------------4----6----------6-----6------6------------4-|
D|-4----------7--------2-----------0---------4----------7---------2----------|
A|-4----------7--------2-----------0---------4----------7---------2----------|
D|-4----------7--------2-----------0---------4----------7---------2----------|
 
"I don't wanna wait too long"
e|----------------------------------------------------------------------|
B|----2------------2------------2-------------2----------2--------2-----|
G|-------2------------2------------2-------------2----------2--4-----2--|
D|-4--------4---4--------4---4--------4---4---------4/2-----------------|
A|-4------------4------------4------------4-----------------------------|
D|-4------------4------------4------------4-----------------------------|
 
 
 
[Outro]
e|------------------------------------------------------------------------------------------------|
B|----------------2/5---------7---2---2/5---------7---2---2/5-----------------2/5-----------------|
G|----------------------------6-------------------6-----------------------------------------------|
D|-0--0--0--------4/7---9\7-----------4/7---9\7-----------4/7---9\7---9-9-7---4/7---9\7---PM4-PM4-|
A|-0--0--0--------------------------------------------------------------------------------PM4-PM4-|
D|-0--0--0--------------9\7-----------------9\7-----------------9\7-----------------9\7---PM4-PM4-|
 
 
 
************************************
Thanks! Suggestions welcomed!
************************************
 
| h  Hammer on
| /  Slide up
| \  Slide down
| PM Palm mute
 
 
************************************


Login to Edit
Edit
YouTube
Video
View Sheet Music
Sheet
Music
Print
Speed:
Play Intro (login for the full song)
Play
Intro
Sustain:
Download midi (intro) ...

 Rate:
5 star
4 star
3 star
2 star
1 star
 

Comments (0)
 

No comments yet...

Comment on this tab   -   Unhelpful comments are exterminated.
  Your Guest Name:
      [Member Login]
  Comments:
 

Don't understand the tab?
See "How to Read Guitar Tabs".
Supported tags:
<i>italics</i>
<b>bold</b>
<u>underline</u>
<tab>tab lines</tab>
  Are you a spam robot?

If not, solve the equation:




[1366 TabNabbers online]
©2021 TabNabber.com - Musician Supported Contact us Advertising Merchandise Privacy Policy Terms of Use facebook Twitter