TabNabber Tabs   Musician Supported
  Music Tabs
Espa˝ol English
Franšais Русский
Artist: # A B C D E F G H I J K L M N O P Q R S T U V W X Y Z
guitar

Guitar Tab, Chords



(0 from 0 votes)
399 Views, Last Update 1 month ago
by: Gman
guest
[Guest]
e|------------------------------------------------0----------------------|
B|------------0-----------------------0-----------------------0----------|
G|---------0-----0-----------------0-----0-----------------0-----0-------|
D|------2-----------2-----------2-----------2-----------2-----------2----|
A|---2-----------------2-----2-----------------2-----2-----------------2-|
E|0-----------------------0-----------------------0----------------------|


e|2-----------3--------------------------2-----------------------2----------|
B|------------0--------------4--------4-----4-----------------4-----4-------|
G|---------0-----0-----------------4-----------4-----------4-----------4----|
D|------2-----------2-----------4-----------------4-----4-----------------4-|
A|---2-----------------2-----2-----------------------2----------------------|
E|0-------------------------------------------------------------------------|


e|0-----------------------2-----------3-------------5----------------------|
B|------------0-----------------------0-------------------------5----------|
G|---------0-----0-----------------0-----0-------------------5-----5-------|
D|------2-----------2-----------2-----------2-------------7-----------7----|
A|---2-----------------2-----2-----------------2-------7-----------------7-|
E|0-----------------------0-------------------------5----------------------|


e|----------------------0---5------------------------7-----------8----------|
B|------------5-------------------------6------------------6--------6-----6-|
G|---------5-----5----------------5--------5-----0------5-----5--------5----|
D|------7-----------7----------7-----7--------7------3----------------------|
A|---7----------------------8-----------------------------------------------|
E|5-------------------------------------------------------------------------|


e|0-----------0------------------------0------------------------0----------|
B|---------1------3-----0-----------3-----3---------1--------1-----1-------|
G|------0------------0-----------1-----------1------------2-----------2----|
D|---2------------------------2-----------------2------2-----------------2-|
A|3------------------------2------------------------0----------------------|
E|-------------------------------------------------------------------------|

e|------------0--------------|
B|---------1-----1-----------|
G|------2-----------2--------|
D|---2-----------------2-----|
A|0--------------------------|
E|---------------------------|


e|------------------------------------------------------------------------|
B|------------0------------------------0-----------------------0----------|
G|---------0-----0------------------0-----0-----------------0-----0-------|
D|------2-----------2------------2-----------2-----------2-----------2----|
A|---2-----------------2------2-----------------2-----2-----------------2-|
E|0-----------------------0------------------------0----------------------|


e|------------------------0-----------------------------------0-----2------|
B|------------0-----0-----------------0-----------------0-----0------------|
G|---------0-----0-----------------0-----0-----------------0-----0---------|
D|------2-----------2-----------2-----------2-----------2-----------2------|
A|---2-----------------2-----2-----------------2-----2-----------------2---|
E|0-----------------------0-----------------------0------------------------|


e|3-----2-----0-----------------------0-----------------------------------|
B|------------0-----3-----1----------------3-----0-----------0------------|
G|---------0-----0--------------0-------------------------0-----0---------|
D|------2-----------2--------2-----2----2-----2--------2-----------2------|
A|---2-----------------2--3-------------------------2-----------------2---|
E|0----------------------------------------------0------------------------|




e|-------------------------------------------------------------------------|
B|------------0-----------------------0-----------------------0------------|
G|---------0-----0-----------------0-----0-----------------0-----0---------|
D|------2-----------2-----------2-----------2-----------2-----------2------|
A|---2-----------------2-----2-----------------2-----2-----------------2---|
E|0-----------------------0-----------------------0------------------------|


                                                    

e|------------0----------------0-------------------------------------------|
B|------1--------1-----------1--------------0------1-----0-----------------|
G|2--------2--------2-----------------2------------------------2-----0-----|
D|---2-----------------------------2-----2-----2---------3-----------3-----|
A|0----------------------0----------------------------3-----3-----3-----3--|
E|---------------------0---------------------------1-----------1-----------|




e|------0-------------0----------------------------------------------------|
B|--------------4-----------0-----------0-----------------------0----------|
G|--------------------4--------------0-----0-----------------0-----0-------|
D|3-----3----------4-----4--------2-----------2-----------2-----------0----|
A|---3-----3----2--------------2-----------------2-----2-----------------2-|
E|1-------------------------0-----------------------0----------------------|


                                                    

e|-------------------------------------------------------------------------|
B|------------0-----------------------0-------------------------7----------|
G|---------0-----0-----------------0-----0-------------------8-----8-------|
D|------2-----------2-----------2-----------2-------------9-----------9----|
A|---2-----------------2-----2-----------------2------9------------------9-|
E|0-----------------------0------------------------7-----------------------|

   

e|------------------------0------------------------------------------------|
B|------------8-----------------------0-----------------------0------------|
G|---------8-----8-----------------0-----0-----------------0-----0---------|
D|------7-----------9-----------2-----------2-----------2-----------2------|
A|---9-----------------9-----2-----------------2-----2-----------------2---|
E|7-----------------------0-----------------------0------------------------|




e|----------------------------0--------------------------------------------|
B|-------------0--------------0--------------------------------------------|
G|----------0-----0-----------0--------------------------------------------|
D|-------2-----------2--------2--------------------------------------------|
A|----2-----------------2-----2--------------------------------------------|
E|-0--------------------------0--------------------------------------------|




Login to Edit
Edit
YouTube
Video
View Sheet Music
Sheet
Music
Print
Speed:
Play Intro (login for the full song)
Play
Intro
Sustain:
Download midi (intro) ...

 Rate:
5 star
4 star
3 star
2 star
1 star
 

Comments (0)
 

No comments yet...

Comment on this tab   -   Unhelpful comments are exterminated.
  Your Guest Name:
      [Member Login]
  Comments:
 

Don't understand the tab?
See "How to Read Guitar Tabs".
Supported tags:
<i>italics</i>
<b>bold</b>
<u>underline</u>
<tab>tab lines</tab>
  Are you a spam robot?

If not, solve the equation:




[903 TabNabbers online]
©2021 TabNabber.com - Musician Supported Contact us Advertising Merchandise Privacy Policy Terms of Use facebook Twitter