TabNabber Tabs   Musician Supported
  Music Tabs
Espa˝ol English
Franšais Русский
Artist: # A B C D E F G H I J K L M N O P Q R S T U V W X Y Z
Piano

Piano Tab, Chords



(0 from 0 votes)
149 Views, Last Update 18 days ago new
by: Anonymous
guest
[Guest]
e:--------------------------------------------------------------------------|
B:--------------------------------------------------------------------------|
G:---------7/9----------7/9-9-9-------------------------------------------9-|
D:-9-11-12------9-11-12---------12-12-11-11-9----9-h11-11\9p7-9-------9-11--|
A:--------------------------------------------12-----------------9-12-------|
E:--------------------------------------------------------------------------|

e:---------9-10p9----9-9-12-12-p9---------14-16/17~--------14-16/17-17-17-17-|
B:---10-12--------12----------------14-17------------14-17-------------------|
G:11-------------------------------------------------------------------------|
D:---------------------------------------------------------------------------|
A:---------------------------------------------------------------------------|
E:---------------------------------------------------------------------------|

e:-16-16-14-14--------14-17-16-14----17---------------12---------------------|
B:--------------14-17-------------17-----14\12-10--------12p10---------------|
G:------------------------------------------------11p9--------9\7------------|
D:---------------------------------------------------------------9p7----9/11-|
A:------------------------------------------------------------------9-12-----|
E:---------------------------------------------------------------------------|

e:----------------------12---------------------------------------------------|
B:-----10-12-/14\12-p10----1010-(h12)-------9-10p9---------------------------|
G:9h11-----------------------------------11--------11-9----------------------|
D:------------------------------------11----------------9/11\9----------9/11-|
A:-------------------------------------------------------------12-9-9h12-----|
E:---------------------------------------------------------------------------|

e:--------/9-12-14-14-p12p9--------14--1414-----------------14-17-19^-^-19^~-|
B:---------------------------14-17----------17-17-p14-14-17------------------|
G:-9-9h11--------------------------------------------------------------------|
D:---------------------------------------------------------------------------|
A:---------------------------------------------------------------------------|
E:---------------------------------------------------------------------------|

e:~~19b21-r19p17-19b21r19~-16-17p16------------------------14----------------|
B:----------------------------------17-14------------------14----------------|
G:---------------------------------------16-14----14-16b18--(18)r16-14h16p14-|
D:----------------------------------------------16---------------------------|
A:---------------------------------------------------------------------------|
E:---------------------------------------------------------------------------|

e:-----------------------------------------------------|
B:-----------------------------------------------------|
G:----14---------------14------------------------------|
D:-16---16p14----14-16----16---------------------------|
A:------------16------------14~----1414/16-14----------|
E:------------------------------17------------17-14~~--|


Login to Edit
Edit
YouTube
Video
View Sheet Music
Sheet
Music
Voice / Instrument / Track Legend
Instr.
Map
Print
Speed:
Play Intro (login for the full song)
Play
Intro
Sustain:
Download midi (intro) ...

 Rate:
5 star
4 star
3 star
2 star
1 star
 

Comments (0)
 

No comments yet...

Comment on this tab   -   Unhelpful comments are exterminated.
  Your Guest Name:
      [Member Login]
  Comments:
 

Don't understand the tab?
See "How to Read Piano Tabs".
Supported tags:
<i>italics</i>
<b>bold</b>
<u>underline</u>
<tab>tab lines</tab>
  Are you a spam robot?

If not, solve the equation:




[1383 TabNabbers online]
©2021 TabNabber.com - Musician Supported Contact us Advertising Merchandise Privacy Policy Terms of Use facebook Twitter