TabNabber Tabs   Musician Supported
  Music Tabs
Espa˝ol English
Franšais Русский
Artist: # A B C D E F G H I J K L M N O P Q R S T U V W X Y Z
guitar

Guitar Tab, Chords



(0 from 0 votes)
202 Views, Last Update 19 days ago new
by: Anonymous
guest
[Guest]
[Intro] (x8)
e|----0-----------0----------0--------------------|
B|------0-----------0----------0------------------|
G|--------0-----------0----------0----------------|
D|-2--------0-2---------2-2--------0--7-8-8-7-5-3-|
A|-2----------2---------2-2-----------7-8-8-7-5-3-|
E|-0----------0---------0-0-----------5-6-6-5-3-1-|
 
[Riff A]
(guitar 1)
e|-----------------------------------------------------------------|
B|-----------------------------------------------------------------|
G|--------9--9-9\---------8--8-8\---------9--9-9\------------------|
D|-2--2-2-9--9-9\--2--2-2-8--8-8\--2--2-2-9--9-9\--2--2-2--3--3-3--|
A|-2--2-2-7--7-7\--2--2-2-6--6-6\--2--2-2-7--7-7\--2--2-2--3--3-3--|
E|-0--0-0----------0--0-0----------0--0-0----------0--0-0--1--1-1--|
 
[Riff A]
(guitar 2)
e|-----------------------------------------------------------------|
B|-----------------------------------------------------------------|
G|--------9--9-9\---------8--8-8\---------9--9-9\----------10--10\-| (x4)
D|-2--2-2-9--9-9\--2--2-2-8--8-8\--2--2-2-9--9-9\--2--2-2--10--10\-|
A|-2--2-2-7--7-7\--2--2-2-6--6-6\--2--2-2-7--7-7\--2--2-2---8---8\-|
E|-0--0-0----------0--0-0----------0--0-0----------0--0-0----------|
 
[Bridge]
e|-----------|
B|-----------|
G|------8-9--| (x8)
D|-2222-8-9--|
A|-2222-6-7--|
E|-0000------|
 
(guitar 2 starts from 5th)
 
[Riff B]
(both guitars)
e|----------------------------------|
B|----------------------------------|
G|-----------------99999999---------|
D|-22222222888888889999999988888888-| (x4)
A|-22222222888888887777777788888888-|
E|-0000000066666666--------66666666-|
 
[Verse]
e|----------------------------------|
B|----------------------------------|
G|-------------------------9999-----|
D|-22222222222222228888888899998888-| (x4)
A|-22222222222222228888888877778888-|
E|-000000000000000066666666----6666-|
 
[Riff B]
(both guitars)
e|----------------------------------|
B|----------------------------------|
G|-----------------99999999---------|
D|-22222222888888889999999988888888-| (x4)
A|-22222222888888887777777788888888-|
E|-0000000066666666--------66666666-|
 
[Verse]
e|----------------------------------|
B|----------------------------------|
G|-------------------------9999-----|
D|-22222222222222228888888899998888-| (x4)
A|-22222222222222228888888877778888-|
E|-000000000000000066666666----6666-|
 
[Riff B]
(both guitars)
e|----------------------------------|
B|----------------------------------|
G|-----------------99999999---------|
D|-22222222888888889999999988888888-|
A|-22222222888888887777777788888888-|
E|-0000000066666666--------66666666-|
 
E5
 
(Drum and Bass intro to next riff then slide to this)
 
[Riff C]
(guitar 1)
e|------------------------|
B|------------------------|
G|------------------------|
D|-2----3----2-2--2--3----|
A|-2----3----2-2--2--3----|
E|-0----1----0-0--0--1----|
 
(Guitar 1 plays this 14 times)
 
(Guitar 2 plays solo)
 
[Riff C] (x8)
(guitar 1)
e|------------------------|
B|------------------------|
G|------------------------|
D|-2----3----2-2--2--3----|
A|-2----3----2-2--2--3----|
E|-0----1----0-0--0--1----|
 
[Riff B] (x4)
(both guitars)
e|----------------------------------|
B|----------------------------------|
G|-----------------99999999---------|
D|-22222222888888889999999988888888-|
A|-22222222888888887777777788888888-|
E|-0000000066666666--------66666666-|


Login to Edit
Edit
YouTube
Video
View Sheet Music
Sheet
Music
Print
Speed:
Play Intro (login for the full song)
Play
Intro
Sustain:
Download midi (intro) ...

 Rate:
5 star
4 star
3 star
2 star
1 star
 

Comments (0)
 

No comments yet...

Comment on this tab   -   Unhelpful comments are exterminated.
  Your Guest Name:
      [Member Login]
  Comments:
 

Don't understand the tab?
See "How to Read Guitar Tabs".
Supported tags:
<i>italics</i>
<b>bold</b>
<u>underline</u>
<tab>tab lines</tab>
  Are you a spam robot?

If not, solve the equation:




[607 TabNabbers online]
©2021 TabNabber.com - Musician Supported Contact us Advertising Merchandise Privacy Policy Terms of Use facebook Twitter