TabNabber Tabs   Musician Supported
  Music Tabs
Espa˝ol English
Franšais Русский
Artist: # A B C D E F G H I J K L M N O P Q R S T U V W X Y Z
guitar

Guitar Tab, Chords



(0 from 0 votes)
65 Views, Last Update 7 days ago new
by: Anonymous
guest
[Guest]
e|-------------------------------|
a|-------------------------3-----|
d|-----------------2---2-5-------|
g|-------2-4-2-4-5---5-----------|
b|-5-3-5-------------------------|
e|-------------------------------|
                                    
e|-------------------------------|
a|-------------------------3-5-3-|
d|-----------------2---2-5-------|
g|-------2-4-2-4-5---5-----------|
b|-5-3-5-------------------------|
e|-------------------------------|


e|-------------------------------|
a|-------------------------3-----|
d|-----------------2---2-5-------|
g|-------2-3-2-3-5---5-----------|
b|-5-3-5-------------------------|
e|-------------------------------|

e|-------------------------------|
a|-------------------------3-5-3-|
d|-----------------2---2-5-------|
g|-------2-3-2-3-5---5-----------|
b|-5-3-5-------------------------|
e|-------------------------------|

e|-------------------------------|
a|-------------------------3-----|
d|-----------------2---2-5-------|
g|-------2-4-2-4-5---5-----------|
b|-5-3-5-------------------------|
e|-------------------------------|
                                    
e|-------------------------------|
a|-------------------------3-5-3-|
d|-----------------2---2-5-------|
g|-------2-4-2-4-5---5-----------|
b|-5-3-5-------------------------|
e|-------------------------------|

e|-------------------------------|
a|-------------------------3-----|
d|-----------------2---2-5-------|
g|-------2-3-2-3-5---5-----------|
b|-5-3-5-------------------------|
e|-------------------------------|

e|-------------------------------|
a|-------------------------3-5-3-|
d|-----------------2---2-5-------|
g|-------2-3-2-3-5---5-----------|
b|-5-3-5-------------------------|
e|-------------------------------|

a|-------------------------3-----|
d|-----------------2---2-5-------|
g|-------2-4-2-4-5---5-----------|
b|-5-3-5-------------------------|
e|-------------------------------|
                                    
e|-------------------------------|
a|-------------------------3-5-3-|
d|-----------------2---2-5-------|
g|-------2-4-2-4-5---5-----------|
b|-5-3-5-------------------------|
e|-------------------------------|

e|-------------------------------|
a|-------------------------3-----|
d|-----------------2---2-5-------|
g|-------2-3-2-3-5---5-----------|
b|-5-3-5-------------------------|
e|-------------------------------|

e|-------------------------------|
a|-------------------------3-5-3-|
d|-----------------2---2-5-------|
g|-------2-3-2-3-5---5-----------|
b|-5-3-5-------------------------|
e|-------------------------------|

e|-------------------------------|
a|-------------------------------|
d|-------------------------------|
g|-------------------------------|
b|-5--5--3--5--3-5---------------|
e|-------------------------------|

e|-------------------------------|
a|-------------------------------|
d|-------------------------------|
g|-------------7-----------------|
b|-5--5--3--5----5---------------|
e|-------------------------------|

e|-------------------------------|
a|-------------------------------|
d|-------------------------------|
g|-------------------------------|
b|-5--5--3--5--3-5---------------|
e|-------------------------------|

e|-------------------------------|
a|-------------------------------|
d|-------------------------------|
g|-------------------------------|
b|-3--3--1--3--1-3---------------|
e|-------------------------------|

e|-------------------------------|
a|-------------------------------|
d|-------------------------------|
g|-----------------5--0----------|
b|-3--3--1-3--1-3----------------|
e|-------------------------------|

e|-------------------------------|
a|-------------------------------|
d|-------------------------------|
g|-------------------------------|
b|-5--5--3--5--3-5---------------|
e|-------------------------------|

e|-------------------------------|
a|-------------------------------|
d|-------------------------------|
g|-------------7-----------------|
b|-5--5--3--5----5---------------|
e|-------------------------------|

e|-------------------------------|
a|-------------------------------|
d|-------------------------------|
g|-------------------------------|
b|-5--5--3--5--3-5---------------|
e|-------------------------------|

e|-------------------------------|
a|-------------------------------|
d|-------------------------------|
g|-------------3-----------------|
b|-5--5--3--5----5---------------|
e|-------------------------------|

e|-------------------------------|
a|-------------------------------|
d|-------------------------------|
g|-------------------------------|
b|-3--3--1--3--1-3---------------|
e|-------------------------------|

e|-------------------------------|
a|-------------------------------|
d|-------------------------------|
g|-------------------------------|
b|-3--3--1-3--1-------1--3-------|
e|--------------3--3-------------|


e|-------------------------------|
a|-------------------------3-----|
d|-----------------2---2-5-------|
g|-------2-4-2-4-5---5-----------|
b|-5-3-5-------------------------|
e|-------------------------------|

e|-------------------------------|
a|-------------------------3-5-3-|
d|-----------------2---2-5-------|
g|-------2-4-2-4-5---5-----------|
b|-5-3-5-------------------------|
e|-------------------------------|
                                      
e|-------------------------------|
a|-------------------------------|
d|-5-3-5-3-------3-------3-5-----|
g|---------5-3-5---2-3-5---------|
b|-------------------------------|
e|-------------------------------|

e|--------------------------------|
a|-------------------------3-5-3--|
d|-----0-2-0-4-0-5-0-2-4-5--------|
g|-5-0----------------------------|
b|--------------------------------|
e|--------------------------------|

e|-------------------------------|
a|-------------------------3-----|
d|-----------------2---2-5-------|
g|-------2-4-2-4-5---5-----------|
b|-5-3-5-------------------------|
e|-------------------------------|

e|-------------------------------|
a|-------------------------3-5-3-|
d|-----------------2---2-5-------|
g|-------2-4-2-4-5---5-----------|
b|-5-3-5-------------------------|
e|-------------------------------|
                                      
e|-------------------------------|
a|-------------------------------|
d|-5-3-5-3-------3-------3-5-----|
g|---------5-3-5---2-3-5---------|
b|-------------------------------|
e|-------------------------------|

e|--------------------------------|
a|-------------------------3-5-3--|
d|-----0-2-0-4-0-5-0-2-4-5--------|
g|-5-0----------------------------|
b|--------------------------------|
e|--------------------------------|

e|-------------------------------|
a|-------------------------3-----|
d|-----------------2---2-5-------|
g|-------2-4-2-4-5---5-----------|
b|-5-3-5-------------------------|
e|-------------------------------|

e|-------------------------------|
a|-------------------------3-5-3-|
d|-----------------2---2-5-------|
g|-------2-4-2-4-5---5-----------|
b|-5-3-5-------------------------|
e|-------------------------------|
                                      
e|-------------------------------|
a|-------------------------------|
d|-5-3-5-3-------3-------3-5-----|
g|---------5-3-5---2-3-5---------|
b|-------------------------------|
e|-------------------------------|

e|--------------------------------|
a|-------------------------3-5-3--|
d|-----0-2-0-4-0-5-0-2-4-5--------|
g|-5-0----------------------------|
b|--------------------------------|
e|--------------------------------|

e|-------------------------------|
a|-------------------------3-----|
d|-----------------2---2-5-------|
g|-------2-4-2-4-5---5-----------|
b|-5-3-5-------------------------|
e|-------------------------------|

e|-------------------------------|
a|-------------------------3-5-3-|
d|-----------------2---2-5-------|
g|-------2-4-2-4-5---5-----------|
b|-5-3-5-------------------------|
e|-------------------------------|
                                      
e|-------------------------------|
a|-------------------------------|
d|-5-3-5-3-------3-------3-5-----|
g|---------5-3-5---2-3-5---------|
b|-------------------------------|
e|-------------------------------|

e|--------------------------------|
a|-------------------------3-5-3--|
d|-----0-2-0-4-0-5-0-2-4-5--------|
g|-5-0----------------------------|
b|--------------------------------|
e|--------------------------------|

e|-------------------------------|
a|-----------5-6--5--------------|
d|-----5-------------5-----------|
g|-7------7------------5----7----|
b|-------------------------------|
e|-------------------------------|

e|-------------------------------|
a|-----------5-6--5--------------|
d|-----5-------------5-----------|
g|-7------7------------5----7----|
b|-------------------------------|
e|-------------------------------|

e|----------------------------------------------|
a|----------5-6--8--6--5-----6--5---------------|
d|----5-------------------5--------5------------|
g|-7-----7----------------------------8--7------|
b|----------------------------------------------|
e|----------------------------------------------|

e|-------------------------------|
a|-----------5-6--5--------------|
d|-----5-------------5-----------|
g|-7------7------------5----7----|
b|-------------------------------|
e|-------------------------------|

e|-------------------------------|
a|-----------5-6--5--------------|
d|-----5-------------5-----------|
g|-7------7------------5----7----|
b|-------------------------------|
e|-------------------------------|

e|----------------------------------------------|
a|----------5-6--8--6--5-----6--5---------------|
d|----5-------------------5--------5------------|
g|-7-----7----------------------------8--7------|
b|----------------------------------------------|
e|----------------------------------------------|

e|-------------------------------|
a|-------------------------3-----|
d|-----------------2---2-5-------|
g|-------2-4-2-4-5---5-----------|
b|-5-3-5-------------------------|
e|-------------------------------|

e|-------------------------------|
a|-------------------------3-5-3-|
d|-----------------2---2-5-------|
g|-------2-4-2-4-5---5-----------|
b|-5-3-5-------------------------|
e|-------------------------------|
                                      
e|-------------------------------|
a|-------------------------------|
d|-5-3-5-3-------3-------3-5-----|
g|---------5-3-5---2-3-5---------|
b|-------------------------------|
e|-------------------------------|

e|--------------------------------|
a|-------------------------3-5-3--|
d|-----0-2-0-4-0-5-0-2-4-5--------|
g|-5-0----------------------------|
b|--------------------------------|
e|--------------------------------|

e|-------------------------------|
a|-------------------------3-----|
d|-----------------2---2-5-------|
g|-------2-4-2-4-5---5-----------|
b|-5-3-5-------------------------|
e|-------------------------------|

e|-------------------------------|
a|-------------------------3-5-3-|
d|-----------------2---2-5-------|
g|-------2-4-2-4-5---5-----------|
b|-5-3-5-------------------------|
e|-------------------------------|
                                      
e|-------------------------------|
a|-------------------------------|
d|-5-3-5-3-------3-------3-5-----|
g|---------5-3-5---2-3-5---------|
b|-------------------------------|
e|-------------------------------|

e|--------------------------------|
a|-------------------------3-5-3--|
d|-----0-2-0-4-0-5-0-2-4-5--------|
g|-5-0----------------------------|
b|--------------------------------|
e|--------------------------------|

e|-------------------------------|
a|-------------------------3-----|
d|-----------------2---2-5-------|
g|-------2-4-2-4-5---5-----------|
b|-5-3-5-------------------------|
e|-------------------------------|

e|-------------------------------|
a|-------------------------3-5-3-|
d|-----------------2---2-5-------|
g|-------2-4-2-4-5---5-----------|
b|-5-3-5-------------------------|
e|-------------------------------|
                                      
e|-------------------------------|
a|-------------------------------|
d|-5-3-5-3-------3-------3-5-----|
g|---------5-3-5---2-3-5---------|
b|-------------------------------|
e|-------------------------------|

e|--------------------------------|
a|-------------------------3-5-3--|
d|-----0-2-0-4-0-5-0-2-4-5--------|
g|-5-0----------------------------|
b|--------------------------------|
e|--------------------------------|

e|-------------------------------|
a|-------------------------3-----|
d|-----------------2---2-5-------|
g|-------2-4-2-4-5---5-----------|
b|-5-3-5-------------------------|
e|-------------------------------|

e|-------------------------------|
a|-------------------------3-5-3-|
d|-----------------2---2-5-------|
g|-------2-4-2-4-5---5-----------|
b|-5-3-5-------------------------|
e|-------------------------------|
                                      
e|-------------------------------|
a|-------------------------------|
d|-5-3-5-3-------3-------3-5-----|
g|---------5-3-5---2-3-5---------|
b|-------------------------------|
e|-------------------------------|

e|--------------------------------|
a|-------------------------3-5-3--|
d|-----0-2-0-4-0-5-0-2-4-5--------|
g|-5-0----------------------------|
b|--------------------------------|
e|--------------------------------|

e|-------------------------------|
a|-------------------------------|
d|-------------------------------|
g|-------------------------------|
b|-5--5--3--5--3-5---------------|
e|-------------------------------|

e|-------------------------------|
a|-------------------------------|
d|-------------------------------|
g|-------------7-----------------|
b|-5--5--3--5----5---------------|
e|-------------------------------|

e|-------------------------------|
a|-------------------------------|
d|-------------------------------|
g|-------------------------------|
b|-5--5--3--5--3-5---------------|
e|-------------------------------|

e|-------------------------------|
a|-------------------------------|
d|-------------------------------|
g|-------------------------------|
b|-3--3--1--3--1-3---------------|
e|-------------------------------|

e|-------------------------------|
a|-------------------------------|
d|-------------------------------|
g|-----------------5--0----------|
b|-3--3--1-3--1-3----------------|
e|-------------------------------|

e|-------------------------------|
a|-------------------------------|
d|-------------------------------|
g|-------------------------------|
b|-5--5--3--5--3-5---------------|
e|-------------------------------|

e|-------------------------------|
a|-------------------------------|
d|-------------------------------|
g|-------------7-----------------|
b|-5--5--3--5----5---------------|
e|-------------------------------|

e|-------------------------------|
a|-------------------------------|
d|-------------------------------|
g|-------------------------------|
b|-5--5--3--5--3-5---------------|
e|-------------------------------|

e|-------------------------------|
a|-------------------------------|
d|-------------------------------|
g|-------------3-----------------|
b|-5--5--3--5----5---------------|
e|-------------------------------|

e|-------------------------------|
a|-------------------------------|
d|-------------------------------|
g|-------------------------------|
b|-3--3--1--3--1-3---------------|
e|-------------------------------|

e|-------------------------------|
a|-------------------------------|
d|-------------------------------|
g|-------------------------------|
b|-3--3--1-3--1-------1--3-------|
e|--------------3--3-------------|


e|-------------------------------|
a|-------------------------3-----|
d|-----------------2---2-5-------|
g|-------2-4-2-4-5---5-----------|
b|-5-3-5-------------------------|
e|-------------------------------|

e|-------------------------------|
a|-------------------------3-5-3-|
d|-----------------2---2-5-------|
g|-------2-4-2-4-5---5-----------|
b|-5-3-5-------------------------|
e|-------------------------------|
                                      
e|-------------------------------|
a|-------------------------------|
d|-5-3-5-3-------3-------3-5-----|
g|---------5-3-5---2-3-5---------|
b|-------------------------------|
e|-------------------------------|

e|--------------------------------|
a|-------------------------3-5-3--|
d|-----0-2-0-4-0-5-0-2-4-5--------|
g|-5-0----------------------------|
b|--------------------------------|
e|--------------------------------|

e|-------------------------------|
a|-------------------------3-----|
d|-----------------2---2-5-------|
g|-------2-4-2-4-5---5-----------|
b|-5-3-5-------------------------|
e|-------------------------------|

e|-------------------------------|
a|-------------------------3-5-3-|
d|-----------------2---2-5-------|
g|-------2-4-2-4-5---5-----------|
b|-5-3-5-------------------------|
e|-------------------------------|
                                      
e|-------------------------------|
a|-------------------------------|
d|-5-3-5-3-------3-------3-5-----|
g|---------5-3-5---2-3-5---------|
b|-------------------------------|
e|-------------------------------|

e|--------------------------------|
a|-------------------------3-5-3--|
d|-----0-2-0-4-0-5-0-2-4-5--------|
g|-5-0----------------------------|
b|--------------------------------|
e|--------------------------------|

e|-------------------------------|
a|-------------------------3-----|
d|-----------------2---2-5-------|
g|-------2-4-2-4-5---5-----------|
b|-5-3-5-------------------------|
e|-------------------------------|

e|-------------------------------|
a|-------------------------3-5-3-|
d|-----------------2---2-5-------|
g|-------2-4-2-4-5---5-----------|
b|-5-3-5-------------------------|
e|-------------------------------|
                                      
e|-------------------------------|
a|-------------------------------|
d|-5-3-5-3-------3-------3-5-----|
g|---------5-3-5---2-3-5---------|
b|-------------------------------|
e|-------------------------------|

e|--------------------------------|
a|-------------------------3-5-3--|
d|-----0-2-0-4-0-5-0-2-4-5--------|
g|-5-0----------------------------|
b|--------------------------------|
e|--------------------------------|

e|-------------------------------|
a|-------------------------3-----|
d|-----------------2---2-5-------|
g|-------2-4-2-4-5---5-----------|
b|-5-3-5-------------------------|
e|-------------------------------|

e|-------------------------------|
a|-------------------------3-5-3-|
d|-----------------2---2-5-------|
g|-------2-4-2-4-5---5-----------|
b|-5-3-5-------------------------|
e|-------------------------------|
                                      
e|-------------------------------|
a|-------------------------------|
d|-5-3-5-3-------3-------3-5-----|
g|---------5-3-5---2-3-5---------|
b|-------------------------------|
e|-------------------------------|

e|--------------------------------|
a|-------------------------3-5-3--|
d|-----0-2-0-4-0-5-0-2-4-5--------|
g|-5-0----------------------------|
b|--------------------------------|
e|--------------------------------|


e|-------------------------------|
a|-------------------------3-----|
d|-----------------2---2-5-------|
g|-------2-4-2-4-5---5-----------|
b|-5-3-5-------------------------|
e|-------------------------------|

e|-------------------------------|
a|-------------------------3-----|
d|-----------------2---2-5-------|
g|-------2-4-2-4-5---5-----------|
b|-5-3-5-------------------------|
e|-------------------------------|

e|-------------------------------|
a|-------------------------3-5-3-|
d|-----------------2---2-5-------|
g|-------2-4-2-4-5---5-----------|
b|-5-3-5-------------------------|
e|-------------------------------|

e|-------------------------------|
a|-------------------------3-5-3-|
d|-----------------2---2-5-------|
g|-------2-4-2-4-5---5-----------|
b|-5-3-5-------------------------|
e|-------------------------------|


e|-------------------------------|
a|-------------------------3-----|
d|-----------------2---2-5-------|
g|-------2-4-2-4-5---5-----------|
b|-5-3-5-------------------------|
e|-------------------------------|

e|-------------------------------|
a|-------------------------3-----|
d|-----------------2---2-5-------|
g|-------2-4-2-4-5---5-----------|
b|-5-3-5-------------------------|
e|-------------------------------|

e|-------------------------------|
a|-------------------------3-5-3-|
d|-----------------2---2-5-------|
g|-------2-4-2-4-5---5-----------|
b|-5-3-5-------------------------|
e|-------------------------------|

e|-------------------------------|
a|-------------------------3-5-3-|
d|-----------------2---2-5-------|
g|-------2-4-2-4-5---5-----------|
b|-5-3-5-------------------------|
e|-------------------------------|

e|-------------------------------|
a|-------------------------3-----|
d|-----------------2---2-5-------|
g|-------2-4-2-4-5---5-----------|
b|-5-3-5-------------------------|
e|-------------------------------|

e|-------------------------------|
a|-------------------------3-----|
d|-----------------2---2-5-------|
g|-------2-4-2-4-5---5-----------|
b|-5-3-5-------------------------|
e|-------------------------------|

e|-------------------------------|
a|-------------------------3-5-3-|
d|-----------------2---2-5-------|
g|-------2-4-2-4-5---5-----------|
b|-5-3-5-------------------------|
e|-------------------------------|

e|-------------------------------|
a|-------------------------3-5-3-|
d|-----------------2---2-5-------|
g|-------2-4-2-4-5---5-----------|
b|-5-3-5-------------------------|
e|-------------------------------|


Login to Edit
Edit
YouTube
Video
View Sheet Music
Sheet
Music
Print
Speed:
Play Intro (login for the full song)
Play
Intro
Sustain:
Download midi (intro) ...

 Rate:
5 star
4 star
3 star
2 star
1 star
 

Comments (0)
 

No comments yet...

Comment on this tab   -   Unhelpful comments are exterminated.
  Your Guest Name:
      [Member Login]
  Comments:
 

Don't understand the tab?
See "How to Read Guitar Tabs".
Supported tags:
<i>italics</i>
<b>bold</b>
<u>underline</u>
<tab>tab lines</tab>
  Are you a spam robot?

If not, solve the equation:




[737 TabNabbers online]
©2021 TabNabber.com - Musician Supported Contact us Advertising Merchandise Privacy Policy Terms of Use facebook Twitter