TabNabber Tabs   Musician Supported
  Music Tabs
Espa˝ol English
Franšais Русский
Artist: # A B C D E F G H I J K L M N O P Q R S T U V W X Y Z
guitar

Guitar Tab, Chords



(0 from 0 votes)
253 Views, Last Update 16 days ago new
by: raj
guest
[Guest]
e|---------------------------------------------------------------------------------------| x2 for intro
B|-------------------------------------------------------------------------------------------------|
G|-------------------------------------------------------------------------------------------------| X4
D|-------------------------------------------------------------------------------------------------|
A|----5---5---5---5-----5---5---5---5-----5---5---5---5-----7---7---7---5--------------------------|
E|--7---7---7---7-----2---2---2---2-----5---5---5---5-----5---5---5---5----------------------------|

e|-----------------|
B|-----------------|
G|-----------------| X2
D|-----------------|
A|--5---5---5---7--|
E|--7---2---5---5--|


Login to Edit
Edit
YouTube
Video
View Sheet Music
Sheet
Music
Print
Speed:
Play Intro (login for the full song)
Play
Intro
Sustain:
Download midi (intro) ...

 Rate:
5 star
4 star
3 star
2 star
1 star
 

Comments (0)
 

No comments yet...

Comment on this tab   -   Unhelpful comments are exterminated.
  Your Guest Name:
      [Member Login]
  Comments:
 

Don't understand the tab?
See "How to Read Guitar Tabs".
Supported tags:
<i>italics</i>
<b>bold</b>
<u>underline</u>
<tab>tab lines</tab>
  Are you a spam robot?

If not, solve the equation:




[378 TabNabbers online]
©2021 TabNabber.com - Musician Supported Contact us Advertising Merchandise Privacy Policy Terms of Use facebook Twitter