TabNabber Tabs   Musician Supported
  Music Tabs
Espa˝ol English
Franšais Русский
Artist: # A B C D E F G H I J K L M N O P Q R S T U V W X Y Z
guitar

Guitar Tab, Chords



(0 from 0 votes)
295 Views, Last Update 22 days ago
by: Anonymous
guest
[Guest]
e|-------------------------------------------|
B|-------------------------------------------|
G|*------------------------------------------|
D|*------------------------------------------|
A|-(0)---5---5---5----5-----4---4---4---4----|
D|-----0---0---0---0-----0----0---0---0------|
 
e|------------------------------------------|
B|------------------------------------------|
G|------------------------------------------|
D|------------------------------------------|
A|----7---7---7---7----5---5---5---5--------|
D|--0---0---0---0----0---0---0---0----------|
 
 
e|-------------------------------------|
B|-------------------------------------|
G|-------------------------------------|
D|-------------------------------------|
A|-----2---2---2---2---0---0---0---0---|
D|---0---0---0---0---0---0---0---0-----|
 
e|-------------------------------------|
B|-------------------------------------|
G|------------------------------------*|
D|------------------------------------*|(x3)
A|-----5---5---5---5---5---5---5---5---|
D|---5---5---5---5---5---5---5---5-----|
 
 
[Pre-Chorus]
 
e|------------------------------------|
B|------------------------------------|
G|------------------------------------|
D|------------------------------------|
A|---5---5---5---5---5---5----9----9--|
D|-0---0---0---0---0---0---0----0-----|
 
e|------------------------------------|
B|------------------------------------|
G|------------------------------------|
D|------------------------------------|
A|---5---5---5---5---5---5---5---5----|
D|-0---0---0---0---0---0---0---0------|
 
 
[Chorus]
 
e|------------------------------------|
B|------------------------------------|
G|------------------------------------|
D|----0---0---0---0---0---0---0---0---|
A|--3---3---3---3---2---2---2---2-----|
D|------------------------------------|
 
e|-----------------------------------|
B|-----------------------------------|
G|-----------------------------------|
D|-----------------------------------|
A|---9---9---9---7---7---5---5---5---|
D|-0---0---0---0---0---0---0---0-----|
 
e|------------------------------------|
B|------------------------------------|
G|------------------------------------|
D|----0---0---0---0---0---0---0---0---|
A|--3---3---3---3---2---2---2---2-----|
D|------------------------------------|
 
e|-----------------------------------|
B|-----------------------------------|
G|-----------------------------------|
D|-----------------------------------|
A|---5---5---5---7---7---5---5---5---|
D|-0---0---0---0---0---0---0---0-----|
 
e|------------------------------------|
B|------------------------------------|
G|------------------------------------|
D|----0---0---0---0---0---0---0---0---|
A|--3---3---3---3---2---2---2---2-----|
D|------------------------------------|
 
e|----------------------------------|
B|----------------------------------|
G|----------------------------------|
D|---0---0---0---0---0---0---0---0--|
A|-5---5---4---4---2---2---0---0----|
D|----------------------------------|
 
e|------------------------------------|
B|------------------------------------|
G|------------------------------------|
D|------------------------------------|
A|---5---5---5---5---5---5---5---5----|
D|-5---5---5---5---5---5---5---5------|
 
 
[Verse 2]
 
e|----------------------------------------|
B|----------------------------------------|
G|*---------------------------------------|
D|*---------------------------------------|
A|----5---5---5----5-----4---4---4---4----|
D|--0---0---0---0-----0----0---0---0------|
 
e|------------------------------------------|
B|------------------------------------------|
G|------------------------------------------|
D|------------------------------------------|
A|----7---7---7---7----5---5---5---5--------|
D|--0---0---0---0----0---0---0---0----------|
 
 
e|-------------------------------------|
B|-------------------------------------|
G|-------------------------------------|
D|-------------------------------------|
A|-----2---2---2---2---0---0---0---0---|
D|---0---0---0---0---0---0---0---0-----|
 
e|-------------------------------------|
B|-------------------------------------|
G|------------------------------------*|
D|------------------------------------*| (x3)
A|-----5---5---5---5---5---5---5---5---|
D|---5---5---5---5---5---5---5---5-----|
 
 
[Chorus]
 
e|------------------------------------|
B|------------------------------------|
G|------------------------------------|
D|----0---0---0---0---0---0---0---0---|
A|--3---3---3---3---2---2---2---2-----|
D|------------------------------------|
 
e|-----------------------------------|
B|-----------------------------------|
G|-----------------------------------|
D|-----------------------------------|
A|---9---9---9---7---7---5---5---5---|
D|-0---0---0---0---0---0---0---0-----|
 
e|------------------------------------|
B|------------------------------------|
G|------------------------------------|
D|----0---0---0---0---0---0---0---0---|
A|--3---3---3---3---2---2---2---2-----|
D|------------------------------------|
 
e|-----------------------------------|
B|-----------------------------------|
G|-----------------------------------|
D|-----------------------------------|
A|---5---5---5---7---7---5---5---5---|
D|-0---0---0---0---0---0---0---0-----|
 
e|------------------------------------|
B|------------------------------------|
G|------------------------------------|
D|---0---0---0---0---0---0---0---0----|
A|--3---3---3---3---2---2---2---2-----|
D|------------------------------------|
 
e|----------------------------------|
B|----------------------------------|
G|----------------------------------|
D|---0---0---0---0---0---0---0---0--|
A|-5---5---4---4---2---2---0---0----|
D|----------------------------------|
 
e|------------------------------------|
B|------------------------------------|
G|------------------------------------|
D|------------------------------------|
A|---5---5---5---5---5---5---5---5----|
D|-5---5---5---5---5---5---5---5------|
 
[Bridge]
 
e|--------------------------------------|
B|--------------------------------------|
G|--------------------------------------|
D|--------------------------------------|
A|---5---5---5---5---5---5---9---9------|
D|-0---0---0---0---0---0---0---0--------|
 
e|-----------------------------------------|
B|-----------------------------------------|
G|-----------------------------------------|
D|-----------------------------------------|
A|---10---10---10---10---10---10---10---10-|
D|-0----0----0----0----0----0----0----0----|
 
e|-------------------------------------------|
B|-------------------------------------------|
G|-------------------------------------------|
D|-------------------------------------------|
A|---12---12---12---12---10---10---10---10---|
D|-0----0----0----0----0----0----0----0------|
 
e|------------------------------------|
B|------------------------------------|
G|------------------------------------|
D|------------------------------------|
A|----9---9---9---9---7---7---7---7---|
D|--0---0---0---0---0---0---0---0-----|
 
 
[Verse 3]
 
e|-----------------------------------------|
B|-----------------------------------------|
G|-----------------------------------------|
D|-----------------------------------------|
A|----5---5---5----5-----4---4---4---4-----|
D|--0---0---0---0-----0----0---0---0-------|
 
e|------------------------------------------|
B|------------------------------------------|
G|------------------------------------------|
D|------------------------------------------|
A|----7---7---7---7----5---5---5---5--------|
D|--0---0---0---0----0---0---0---0----------|
 
 
e|-------------------------------------|
B|-------------------------------------|
G|-------------------------------------|
D|-------------------------------------|
A|-----2---2---2---2---0---0---0---0---|
D|---0---0---0---0---0---0---0---0-----|
 
e|------------------------------------|
B|------------------------------------|
G|------------------------------------|
D|------------------------------------|
A|-----5---5---5---5---5---5---5---5--|
D|---5---5---5---5---5---5---5---5----|
 
 
[Chorus]
 
e|------------------------------------|
B|------------------------------------|
G|------------------------------------|
D|----0---0---0---0---0---0---0---0---|
A|--3---3---3---3---2---2---2---2-----|
D|------------------------------------|
 
e|-----------------------------------|
B|-----------------------------------|
G|-----------------------------------|
D|-----------------------------------|
A|---0---0---0---0---0---0---0---0---|
D|-0---0---0---0---0---0---0---0-----|
 
e|------------------------------------|
B|------------------------------------|
G|------------------------------------|
D|----0---0---0---0---0---0---0---0---|
A|--3---3---3---3---2---2---2---2-----|
D|------------------------------------|
 
e|-----------------------------------|
B|-----------------------------------|
G|-----------------------------------|
D|-----------------------------------|
A|---9---9---9---9---5---5---5---5---|
D|-0---0---0---0---0---0---0---0-----|
 
e|------------------------------------|
B|------------------------------------|
G|------------------------------------|
D|---0---0---0---0---0---0---0---0----|
A|-3---3---3---3---2---2---2---2------|
D|------------------------------------|
 
e|----------------------------------|
B|----------------------------------|
G|----------------------------------|
D|---0---0---0---0---0---0---0---0--|
A|-5---5---4---4---2---2---0---0----|
D|----------------------------------|
 
e|------------------------------------|
B|------------------------------------|
G|------------------------------------|
D|------------------------------------|
A|---5---5---5---5---5---5---5---5----|
D|-5---5---5---5---5---5---5---5------|
 
 
Then :
 
e|------------------------------------------|
B|------------------------------------------|
G|------------------------------------------|
D|------------------------------------------|
A|----5---5---5----5-----4---4---4---4------|
D|--0---0---0---0-----0----0---0---0--------|
 
e|------------------------------------------|
B|------------------------------------------|
G|------------------------------------------|
D|------------------------------------------|
A|----7---7---7---7----5---5---5---5--------|
D|--0---0---0---0----0---0---0---0----------|
 
 
[Verse 4]
 
e|-----------------------------------------|
B|-----------------------------------------|
G|-----------------------------------------|
D|-----------------------------------------|
A|----5---5---5----5-----4---4---4---4-----|
D|--0---0---0---0-----0----0---0---0-------|
 
e|------------------------------------------|
B|------------------------------------------|
G|------------------------------------------|
D|------------------------------------------|
A|----7---7---7---7----5---5---5---5--------|
D|--0---0---0---0----0---0---0---0----------|
 
 
e|-------------------------------------|
B|-------------------------------------|
G|-------------------------------------|
D|-------------------------------------|
A|-----2---2---2---2---0---0---0---0---|
D|---0---0---0---0---0---0---0---0-----|
 
e|------------------------------------|
B|------------------------------------|
G|------------------------------------|
D|------------------------------------|
A|-----5---5---5---5---5--------------|
D|---5---5---5---5---5----------------|


Login to Edit
Edit
YouTube
Video
View Sheet Music
Sheet
Music
Print
Speed:
Play Intro (login for the full song)
Play
Intro
Sustain:
Download midi (intro) ...

 Rate:
5 star
4 star
3 star
2 star
1 star
 

Comments (0)
 

No comments yet...

Comment on this tab   -   Unhelpful comments are exterminated.
  Your Guest Name:
      [Member Login]
  Comments:
 

Don't understand the tab?
See "How to Read Guitar Tabs".
Supported tags:
<i>italics</i>
<b>bold</b>
<u>underline</u>
<tab>tab lines</tab>
  Are you a spam robot?

If not, solve the equation:




[67080 TabNabbers online]
©2021 TabNabber.com - Musician Supported Contact us Advertising Merchandise Privacy Policy Terms of Use facebook Twitter