TabNabber Tabs   Musician Supported
  Music Tabs
Espa˝ol English
Franšais Русский
Artist: # A B C D E F G H I J K L M N O P Q R S T U V W X Y Z
guitar

Guitar Tab, Chords



(0 from 0 votes)
62 Views, Last Update 9 days ago new
by: Anonymous
guest
[Guest]
d|--------------------------------------------------------| x3
A|--------------------------------------------------------|
F|--------------------------------------------------------|
C|-12p10-12--10--x-13--12--10--x--x-----------------------|
G|-10----10--10--x-10--10--10--x--x-8--3--8--x-3--3--5--x-|
C|-10----10--10--x-10--10--10--x--x-8--3--8--x-3--3--5--x-|
 
d|--------------------------------------------------------------|
A|--------------------------------------------------------------|
F|--------------------------------------------------------------|
C|-12p10-12--10--x-13--12--10--x--x----------x--x---------------|
G|-10----10--10--x-10--10--10--x--x-8--3--8--x--x---------------|
C|-10----10--10--x-10--10--10--x--x-8--3--8--x--x--3b4-3b4-3b4--|
 
 
[Verse 1]
 
 
d|----------------------------------------------------------|
A|----------------------------------------------------------|
F|----------------------------------------------------------|
C|----------------------------------------------------------|
G|-3--3--3--3--1-3--3--5-3-5-3-1--1--1--1--1--1-------0h1h3-|
C|-3--3--3--3--1-3--3--5-3-5-3-1--1--1--1--1--1--0h1h3------|
 
d|---------------------------------------------------------------|
A|---------------------------------------------------------------|
F|---------------------------------------------------------------|
C|---------------------------------------------------0h1p0-------|
G|-3--3--3--3--1-3--3--3--3--1--1--1--1--------0h1h3-------3p1h3-|
C|-3--3--3--3--1-3--3--3--3--1--1--1--1--0h1h3-------------------|
 
d|--------------------------------------------------------|
A|--------------------------------------------------------|
F|--------------------------------------------------------|
C|--------------------------------------------------------|
G|-3--3--3--3--3--3--5-3-5-3-1--1--1--1--1--1-------0h1h3-|
C|-3--3--3--3--3--3--5-3-5-3-1--1--1--1--1--1--0h1h3------|
 
d|-------------------------------------------------------|
A|-------------------------------------------------------|
F|-------------------------------------------------------|
C|-------------------------------------------------------|
G|-3--3--3--3--3--3h5--3h5--3--1--1--1--1--5--5--5--5--x-|
C|-3--3--3--3--3--3h5--3h5--3--1--1--1--1--5--5--5--5--x-|
 
 
[Chorus]
 
 
d|--------------------------------------------------------| x3
A|--------------------------------------------------------|
F|--------------------------------------------------------|
C|-12p10-12--10--x-13--12--10--x--x-----------------------|
G|-10----10--10--x-10--10--10--x--x-8--3--8--x-3--3--5--x-|
C|-10----10--10--x-10--10--10--x--x-8--3--8--x-3--3--5--x-|
 
d|--------------------------------------------------------------|
A|--------------------------------------------------------------|
F|--------------------------------------------------------------|
C|-12p10-12--10--x-13--12--10--x--x----------x--x---------------|
G|-10----10--10--x-10--10--10--x--x-8--3--8--x--x---------------|
C|-10----10--10--x-10--10--10--x--x-8--3--8--x--x--3b4-3b4-3b4--|
 
 
[Verse 2]
 
 
d|----------------------------------------------------------|
A|----------------------------------------------------------|
F|----------------------------------------------------------|
C|----------------------------------------------------------|
G|-3--3--3--3--1-3--3--5-3-5-3-1--1--1--1--1--1-------0h1h3-|
C|-3--3--3--3--1-3--3--5-3-5-3-1--1--1--1--1--1--0h1h3------|
 
d|---------------------------------------------------------------|
A|---------------------------------------------------------------|
F|---------------------------------------------------------------|
C|---------------------------------------------------0h1p0-------|
G|-3--3--3--3--1-3--3--3--3--1--1--1--1--------0h1h3-------3p1h3-|
C|-3--3--3--3--1-3--3--3--3--1--1--1--1--0h1h3-------------------|
 
d|--------------------------------------------------------|
A|--------------------------------------------------------|
F|--------------------------------------------------------|
C|--------------------------------------------------------|
G|-3--3--3--3--3--3--5-3-5-3-1--1--1--1--1--1-------0h1h3-|
C|-3--3--3--3--3--3--5-3-5-3-1--1--1--1--1--1--0h1h3------|
 
d|---------------------------------------------------|
A|---------------------------------------------------|
F|---------------------------------------------------|
C|---------------------------------------------------|
G|-3--3--3--3--3--3--3--3--1--1--1--1--5--5--5--5--x-|
C|-3--3--3--3--3--3--3--3--1--1--1--1--5--5--5--5--x-|
 
 
[Riff]
 
d|--------------------------------------------------------|
A|--------------------------------------------------------|
F|--------------------------------------------------------|
C|-12p10-12--10--x-13--12--10--x--x-----------------------|
G|-10----10--10--x-10--10--10--x--x-8--3--8--x-3--3--5--x-|
C|-10----10--10--x-10--10--10--x--x-8--3--8--x-3--3--5--x-|
 
d|--------------------------------------------------------------|
A|--------------------------------------------------------------|
F|--------------------------------------------------------------|
C|-12p10-12--10--x-13--12--10--x--x----------x--x---------------|
G|-10----10--10--x-10--10--10--x--x-8--3--8--x--x---------------|
C|-10----10--10--x-10--10--10--x--x-8--3--8--x--x--3b4-3b4-3b4--|
 
 
[Instrumental]
 
d|------------------------------------------------------------------------------------------|
A|------------------------------------------------------------------------------------------|
F|-/8--7---------/7--------------------------/8--7------------------------------------------|
C|--------10--8------10--8h10-8h10-8p7-8p7p5--------10--8--8--8p7-8p7-8p7-8p7-10p8p7-10p8p7-|
G|------------------------------------------------------------------------------------------|
C|------------------------------------------------------------------------------------------|
 
d|-11-11-11-11-11-11-10-10-10-10-10-10-8-8-8-8-8-8-8-8-8-10h11-10-8-----8h10-8-----------8--|
A|------------------------------------------------------------------11---------11-10--11----|
F|------------------------------------------------------------------------------------------|
C|------------------------------------------------------------------------------------------|
G|------------------------------------------------------------------------------------------|
C|------------------------------------------------------------------------------------------|
 
d|-11-11-11-11-11-11-10-10-10-10-10-10-8-8-8-8-8-8-8-8-8-10h11-10-8-------------------8h10-10-10-10-10b11r10-|
A|------------------------------------------------------------------11-11-11-11-11-11------------------------|
F|-----------------------------------------------------------------------------------------------------------|
C|-----------------------------------------------------------------------------------------------------------|
G|-----------------------------------------------------------------------------------------------------------|
C|-----------------------------------------------------------------------------------------------------------|
 
d|-8-8-8-8-8-8-|
A|-------------|
F|-------------|
C|-------------|
G|-------------|
C|-------------|
 
d|-11-11-11-11-11-11-10-10-10-10-10-10-8-8-8-8-8-8-8-8-8-10h11-10-8-----8h10-8-----------8--|
A|------------------------------------------------------------------11---------11-10--11----|
F|------------------------------------------------------------------------------------------|
C|------------------------------------------------------------------------------------------|
G|------------------------------------------------------------------------------------------|
C|------------------------------------------------------------------------------------------|
 
d|-11-11-11-11-11-11-10-10-10-10-10-10-8-8-8-8-8-8-8-8-8-10h11-10-8-------------------8h10-10-10-10-10b11r10-|
A|------------------------------------------------------------------11-11-11-11-11-11------------------------|
F|-----------------------------------------------------------------------------------------------------------|
C|-----------------------------------------------------------------------------------------------------------|
G|-----------------------------------------------------------------------------------------------------------|
C|-----------------------------------------------------------------------------------------------------------|
 
d|-8-8-8-|
A|-------|
F|-------|
C|-------|
G|-------|
C|-------|
 
 
d|---------------------------------------------------------------------------------------------------------|
A|-3/11~----8-8-8h11---11p8-11p8-11p8-11p8--11b13--11-11-8----8---------------------------------8-11-11b13-|
F|----------------------------------------------------------8---10b12-10b12-10-10-8-8-7-7-8-10-------------|
C|---------------------------------------------------------------------------------------------------------|
G|---------------------------------------------------------------------------------------------------------|
C|---------------------------------------------------------------------------------------------------------|
 
d|---8------13-----13--------------------------------------------------|
A|---11b13--13b15--13b15r13p11-13--------------------------------------|
F|---------------------------------------------------------------------|
C|--------------------------------------------------12h13p12-----------|
G|-----------------------------------------12h13h15----------15p13h15/-|
C|--------------------------------12h13h15-----------------------------|
 
 
d|------------------------------------|
A|-/8---------------------------------|
F|----10--8-7----8h10-8--7-------7-8--|
C|-------------------------10---------|
G|------------------------------------|
C|------------------------------------|
 
d|-6------------------------------|
A|-9b11---------------------------|
F|------10--8-7----8h10--8b10--8--|
C|--------------------------------|
G|--------------------------------|
C|--------------------------------|
 
 
d|----------------------------------------------------------------------------------------|
A|----------------------------------------------------------------------------------------|
F|-8h10p8--7h8p7--5h7p5--3h5p3--3--3--0--3-3h5-5h7-7~---7b8r7-7b8r7-7b8r7-5--3-5h7p5p3-5--|
C|----------------------------------------------------------------------------------------|
G|----------------------------------------------------------------------------------------|
C|----------------------------------------------------------------------------------------|
 
d|----------------------------------------------------------|
A|--------------------------------8-------------------------|
F|-7-8-8h10p8-10b12---10pb12r10-8---10--8-7---8-8b10-8b10r8-|
C|----------------------------------------------------------|
G|----------------------------------------------------------|
C|----------------------------------------------------------|
 
 
 Trem pick.................................................................................
d|-----------------------------------------------------------------------------------------|
A|-----------------6-----------------------------------------6-----------------------------|
F|-8--7--5----7--------8--7--5---------10----8--7--5----7---------8--7--5---------10b12----|
C|---------------------------------8-----------------------------------------8-------------|
G|-----------------------------------------------------------------------------------------|
C|-----------------------------------------------------------------------------------------|
 
 
d|-8/10--8-10~--h11p10-8--10-8-6h8p6h8~--8h10p8-6h8p6-5h6p5-3h5p3-1~----|
A|----------------------------------------------------------------------|
F|----------------------------------------------------------------------|
C|----------------------------------------------------------------------|
G|----------------------------------------------------------------------|
C|----------------------------------------------------------------------|
 
d|------------------------------------------------------------------------------------------------|
A|-6/8--------------------------------------------------------------------------------------------|
F|------10--p8-7--8h10-10----p8--10p8--------------------------------------------------------7----|
C|------------------------------------8p7h8p7h8p7h8p7h8p7h8p7h8p7h8p7h8p7h8h10--8p7h8p7-8-10------|
G|------------------------------------------------------------------------------------------------|
C|------------------------------------------------------------------------------------------------|
 
d|-------------------------------------------------------------------|
A|-------------------------------------------------------------------|
F|-8-p7h8-p7h8-p7-------------7-/8/10/12~-/15~-15p12-15~--15p12-15~--|
C|----------------10p8-10/12-----------------------------------------|
G|-------------------------------------------------------------------|
C|-------------------------------------------------------------------|
 
Song begins to fade out...
d|--------------------------------------------------------------------------------------|
A|-16p15p13--16p15p13--16p15p13-16p15p13-16p15p13--16-18-18-18b20-16-18b20-18b20r18-18--|
F|--------------------------------------------------------------------------------------|
C|--------------------------------------------------------------------------------------|
G|--------------------------------------------------------------------------------------|
C|--------------------------------------------------------------------------------------|
 
d|--------------------------------------------------------------------------------------|
A|-16p15p13--16~--16p15p13-16~--16p15p13-16~--16b18r16-16b18r16-16b18r16----------------|
F|--------------------------------------------------------------------------------------|
C|--------------------------------------------------------------------------------------|
G|--------------------------------------------------------------------------------------|
C|--------------------------------------------------------------------------------------|


Login to Edit
Edit
YouTube
Video
View Sheet Music
Sheet
Music
Print
Speed:
Play Intro (login for the full song)
Play
Intro
Sustain:
Download midi (intro) ...

 Rate:
5 star
4 star
3 star
2 star
1 star
 

Comments (0)
 

No comments yet...

Comment on this tab   -   Unhelpful comments are exterminated.
  Your Guest Name:
      [Member Login]
  Comments:
 

Don't understand the tab?
See "How to Read Guitar Tabs".
Supported tags:
<i>italics</i>
<b>bold</b>
<u>underline</u>
<tab>tab lines</tab>
  Are you a spam robot?

If not, solve the equation:




[67379 TabNabbers online]
©2021 TabNabber.com - Musician Supported Contact us Advertising Merchandise Privacy Policy Terms of Use facebook Twitter