TabNabber Tabs   Musician Supported
  Music Tabs
Espa˝ol English
Franšais Русский
Artist: # A B C D E F G H I J K L M N O P Q R S T U V W X Y Z
guitar

Guitar Tab, Chords



(0 from 0 votes)
44 Views, Last Update 4 days ago new
by: Anonymous
guest
[Guest]
C |-----------------------------------------------------------------|
G |-----------------------------------------------------------------|
D#|-----------------------------------------------------------------|
A#|-----------------------------------------------------------4-4-4-|
F |-4---4---2-4-2-4---2-4-2-4-5-4-2---4-5-4-5-4---7-8-7-8-2---------|
A#|-4---4---2-4-2-4---2-4-2-4-5-4-2---4-5-4-5-4---7-8-7-8-2---------|
 
C |-----------------------------------------------------------------|
G |-----------------------------------------------------------------|
D#|-----------------------------------------------------------------|
A#|------------------------------------------------------------2----|
F |-4---4---2-4-2-4---2-4-2-4-5-4-----10p9---9p7---3---2---2-3---3-2|
A#|-4---4---2-4-2-4---2-4-2-4-5-4-0--------0-----0---0---0----------|
                                           .     .   .   .
 
[Verse 1]
C |-------------------------------------------------------------------|
G |-------------------------------------------------------------------|
D#|-------------------------------------------------------------------|
A#|-----------------------------------------------------------4-4-4---|
F |-4---4---2-4-2-4---2-4-2-4-5-4-2---4-5-4-5-4---7-8-7-8-2-----------|
A#|-4---4---2-4-2-4---2-4-2-4-5-4-2---4-5-4-5-4---7-8-7-8-2-----------|
 
                                       (1st Ending)                     (2nd Ending)
C |-----------------------------------|--------------------------------|--------------------------------|
G |-----------------------------------|--------------------------------|--------------------------------|
D#|-----------------------------------|--------------------------------|--------------------------------|
A#|-----------------------------------|-------------------------2------|-------------10---9---5/7-------|
F |-4---4---2-4-2-4---2-4-2-4-5-4-----|10p9---9p7---3---2---2-3---3-2--|10p9---9p7------------------7/10|
A#|-4---4---2-4-2-4---2-4-2-4-5-4-0---|-----0-----0---0---0------------|-----0-----0----0---0-----0-----|
                                            .     .   .   .                  .     .    .   .     .
 
C |-------------------------------------------------------|
G |-------------------------------------------------------|
D#|-9---4---5---5-5-5-5---5-5-5-5---5---5-5-5-2-2-2-------|
A#|-9---4---4---4-4-4-4---4-4-4-4---4---4-4-4-2-2-2-------|
F |-7---2---3---3-3-3-3---3-3-3-3---3---3-3-3-0-0-0-------|
A#|-------------------------------------------------------|
 
C |-------------------------------------------------------|
G |-------------------------------------------------------|
D#|-9---6---7---7-7-7-7-----7-7-7-7-----7---7-7-7---------|
A#|-9---7---7---7-7-7-7-----6-6-6-6-----7---7-7-7---------|(x2)
F |-7---4---5---5-5-5-5-----5-5-5-5-----5---5-5-5---------|
A#|---------------------0-0---------0-0-----------0-0-0---|
                        . .         . .           . . .

C |-----------|
G |-----------|
D#|-4----9----|
A#|-4----9----|
F |-2----7----|
A#|-----------|
 
 
[Verse 2]
C |-------------------------------------------------------------------|
G |-------------------------------------------------------------------|
D#|-------------------------------------------------------------------|
A#|-----------------------------------------------------------4-4-4---|
F |-4---4---2-4-2-4---2-4-2-4-5-4-2---4-5-4-5-4---7-8-7-8-2-----------|
A#|-4---4---2-4-2-4---2-4-2-4-5-4-2---4-5-4-5-4---7-8-7-8-2-----------|
 
                                       (1st Ending)                     (2nd Ending)
C |-----------------------------------|--------------------------------|--------------------------------|
G |-----------------------------------|--------------------------------|--------------------------------|
D#|-----------------------------------|--------------------------------|--------------------------------|
A#|-----------------------------------|-------------------------2------|-------------10---9---5/7-------|
F |-4---4---2-4-2-4---2-4-2-4-5-4-----|10p9---9p7---3---2---2-3---3-2--|10p9---9p7------------------7/10|
A#|-4---4---2-4-2-4---2-4-2-4-5-4-0---|-----0-----0---0---0------------|-----0-----0----0---0-----0-----|
                                            .     .   .   .                  .     .    .   .     .

[Chorus]
C |-------------------------------------------------------|
G |-------------------------------------------------------|
D#|-9---4---5---5-5-5-5---5-5-5-5---5---5-5-5-2-2-2-------|
A#|-9---4---4---4-4-4-4---4-4-4-4---4---4-4-4-2-2-2-------|
F |-7---2---3---3-3-3-3---3-3-3-3---3---3-3-3-0-0-0-------|
A#|-------------------------------------------------------|
 
C |-------------------------------------------------------|
G |-------------------------------------------------------|
D#|-9---6---7---7-7-7-7-----7-7-7-7-----7---7-7-7---------|
A#|-9---7---7---7-7-7-7-----6-6-6-6-----7---7-7-7---------|(x2)
F |-7---4---5---5-5-5-5-----5-5-5-5-----5---5-5-5---------|
A#|---------------------0-0---------0-0-----------0-0-0---|
                        . .         . .           . . .
 
C |-----------|
G |-----------|
D#|-4----9----|
A#|-4----9----|
F |-2----7----|
A#|-----------|
 
 [Pre-solo]
C |-------------------------------------------------------|
G |-------------------------------------------------------|
D#|-------------------------------------------------------|
A#|-----------------4---4-------------------9---10--------|
F |-4-4-4-4-4---4-4-4---4---4-4-4-4-4---4-4-9---10--------|
A#|-4-4-4-4-4---4-4-4---4---4-4-4-4-4---4-4-9---10--------|
                . .                     . .
 
C |-------------------------------------------------------|
G |-------------------------------------------------------|
D#|-------------------------7---4--5--7-------------------|
A#|-----------------4---4---7---4--5--7-------------------|
F |-4-4-4-4-4---4-4-4---4---5---2--3--5-------------------|
A#|-4-4-4-4-4---4-4-4---4---------------------------------|
                . .
 
C |-------------------------------------------------------|
G |-------------------------------------------------------|
D#|-------------------------------------------------------|
A#|-----------------4---4-------------------9---10--------|
F |-4-4-4-4-4-------4---4---4-4-4-4-4-------9---10--------|
A#|-4-4-4-4-4-------4---4---4-4-4-4-4-------9---10--------|
 
 
C |-------------------------------------------------------|
G |-------------------------------------------------------|
D#|-------------------------------------------------------|
A#|-----------------4---4---10-------------10-9-10--------|
F |-4-4-4-4-4-------4---4---10-------------10-9-10--------|
A#|-4-4-4-4-4-------4---4---10-------------10-9-10--------|
 
 
[Solo]
C |---------------------------------------------------|
G |--------------------------------9“-10“-17“-15“--14“|
D#|-7“--6“----2”---10“-11“-10“-11“--------------------|
A#|---------------------------------------------------|
F |---------------------------------------------------|
A#|---------------------------------------------------|
 
C |-----------------------------------------|
G |-------------17--------------------------|
D#|-16b18r16b18----18r16-14-16-14-------18~-|
A#|-------------------------------16-14-----|
F |-----------------------------------------|
A#|-----------------------------------------|
 
C |----------------------------17-16----19-16----16--------|
G |----------------17----16----------17-------17----17-17~-|
D#|-------14----14----14----14-------------------------18~-|
A#|-14-16----16--------------------------------------------|
F |--------------------------------------------------------|
A#|--------------------------------------------------------|
 
C |----------17----------------------------------------|
G |-17-17b19----17pb19---------------------------------|
D#|----------------------------------------------------|
A#|----------------------10b11r10b11---10--10--10~--7~-|
F |----------------------------------------------------|
A#|----------------------------------------------------|
 
C |--------------------------------------------------------------------------|
G |--------------------------------------------------------------------------|
D#|-------------14-------16h18p16p14----16h18p16p14----16h18p16p14-----------|
A#|-14-16-14-16----16-14-------------16-------------16-------------14-14/16~-|
F |--------------------------------------------------------------------------|
A#|--------------------------------------------------------------------------|
 
 
[Chorus]
C |-------------------------------------------------------|
G |-------------------------------------------------------|
D#|-9---4---5---5-5-5-5---5-5-5-5---5---5-5-5-2-2-2-------|
A#|-9---4---4---4-4-4-4---4-4-4-4---4---4-4-4-2-2-2-------|
F |-7---2---3---3-3-3-3---3-3-3-3---3---3-3-3-0-0-0-------|
A#|-------------------------------------------------------|
 
C |-------------------------------------------------------|
G |-------------------------------------------------------|
D#|-9---6---7---7-7-7-7-----7-7-7-7-----7---7-7-7---------|
A#|-9---7---7---7-7-7-7-----6-6-6-6-----7---7-7-7---------|(x3)
F |-7---4---5---5-5-5-5-----5-5-5-5-----5---5-5-5---------|
A#|---------------------0-0---------0-0-----------0-0-0---|
                        . .         . .           . . .
 
C |-----------|
G |-----------|
D#|-4----9----|
A#|-4----9----|
F |-2----7----|
A#|-----------|
 
[Outro]
C |-----------------------------------------------------------------|
G |-----------------------------------------------------------------|
D#|-----------------------------------------------------------------|
A#|-----------------------------------------------------------4-4-4-|
F |-4---4---2-4-2-4---2-4-2-4-5-4-2---4-5-4-5-4---7-8-7-8-2---------|
A#|-4---4---2-4-2-4---2-4-2-4-5-4-2---4-5-4-5-4---7-8-7-8-2---------|
 
                                                                                                 N.H.
C |-----------------------------------------------------------------|--------------------------------|
G |-----------------------------------------------------------------|--------------------------------|
D#|-----------------------------------------------------------------|--------------------------------|
A#|------------------------------------------------------------2----|-------------10---9---5/7-------|
F |-4---4---2-4-2-4---2-4-2-4-5-4-----10p9---9p7---3---2---2-3---3-2|10p9---9p7------------------7-7-|
A#|-4---4---2-4-2-4---2-4-2-4-5-4-0--------0-----0---0---0----------|-----0-----0----0---0-----0-----|
                                           .     .   .   .                .     .    .   .     .
 
C |-------------------------------|
G |-------------------------------|
D#|-------------------------------|
A#|-------------------------------|
F |-4---4---2-4-2-4---4---2-4-2-4-|
A#|-4---4---2-4-2-4---4---2-4-2-4-|


Login to Edit
Edit
YouTube
Video
View Sheet Music
Sheet
Music
Print
Speed:
Play Intro (login for the full song)
Play
Intro
Sustain:
Download midi (intro) ...

 Rate:
5 star
4 star
3 star
2 star
1 star
 

Comments (0)
 

No comments yet...

Comment on this tab   -   Unhelpful comments are exterminated.
  Your Guest Name:
      [Member Login]
  Comments:
 

Don't understand the tab?
See "How to Read Guitar Tabs".
Supported tags:
<i>italics</i>
<b>bold</b>
<u>underline</u>
<tab>tab lines</tab>
  Are you a spam robot?

If not, solve the equation:




[67213 TabNabbers online]
©2021 TabNabber.com - Musician Supported Contact us Advertising Merchandise Privacy Policy Terms of Use facebook Twitter