TabNabber Tabs   Musician Supported
  Music Tabs
Espa˝ol English
Franšais Русский
Artist: # A B C D E F G H I J K L M N O P Q R S T U V W X Y Z
guitar

Guitar Tab, Chords



(0 from 0 votes)
716 Views, Last Update 3 months ago
by: Anonymous
guest
[Guest]
E  E  E  E  E  E       E  E  E  E  Q          E  E  E  E  E  E       E  E  E  E  E  E     
D|----------------------|--------------3-------|--------0--1-----0----|--7--------5----------|
A|-----------1-----3----|-----------1----------|--------------3-------|-----3--5-----3--5----|
F|--------4-----0-------|--------4-------------|----------------------|--------4-------------|
C|-----2----------------|-----3----------------|-----2----------------|-----3----------------|
G|--0-------------------|--0-------------------|--0-------------------|--0-------------------|
D|----------------------|----------------------|----------------------|----------------------|

     E  E  E  E  E  E       E  E  E  E  Q          E  E  E  E  E  E       E  E  H  
D|--------8--------7----|--5--------3--0-------|--0--------0----------|--0-------------------|
A|--------------5-------|-----0--3-------------|--------3--------3----|--------0-------------|
F|-----------7----------|----------------------|-----2--------2-------|----------------------|
C|----------------------|-----2----------------|----------------------|-----2----------------|
G|-----7----------------|----------------------|-----3----------------|----------------------|
D|--5-------------------|--3-------------------|--1-------------------|--3-------------------|
                                     T
     E  E  E  E  E  E       E  E  E  E  Q          E  E  E  E  E  E       E  E  Q     Q        
D|-----0--------0-------|--0-----0--7--0-------|--------0-----0-------|--0-------------------|
A|--------1--3-----3----|-----3--0-------------|-----3-----------3----|--------0-------------|
F|--------2-------------|----------------------|-----------2----------|--------------0-------|
C|-----2----------------|-----2----------------|----------------------|-----0----------------|
G|--0-------------------|----------------------|-----3----------------|----------------------|
D|----------------------|--3-------------------|--1-------------------|--3-------------------|

     E  E  E  E  E  E       E  E  H                E  E  E  E  E  E       E  E  H              
D|--1--------0--1-------|----------------------|--5-----------0-------|--0-------------------|
A|-----------------3----|--0-------------------|-----------3-----3----|--------2-------------|
F|--2-----2-------------|--------0-------------|--2-----2-------------|----------------------|
C|----------------------|-----0----------------|--2--2----------------|-----2----------------|
G|-----3----------------|----------------------|--0-------------------|--0-------------------|
D|--1-------------------|--3-------------------|----------------------|----------------------|

    E  E  Q     Q          E  E  Q     E  E       E  E  Q     Q          E  E  H              
D|----------------------|----------------------|--0-----------3-------|--0-------------------|
A|----------------------|--0-----0-----1--3----|--------1-------------|--------0-------------|
F|--------2-----2-------|----------------------|--------2-------------|----------------------|
C|--2-------------------|-----0----------------|-----2----------------|-----0----------------|
G|-----3----------------|----------------------|--0-------------------|----------------------|
D|--1-------------------|--3-------------------|----------------------|--3-------------------|

     E  E  Q     E  E       E  E  Q     Q          E  E  Q     Q          E  E  H              
D|--------0--------0----|----------------------|----------------------|----------------------|
A|--------------3-------|--------0-------------|--1--0----------------|--------0-------------|
F|--------2-------------|--2-----------0-------|--------2-----0-------|--2-------------------|
C|----------------------|-----0----------------|-----2----------------|-----0----------------|
G|-----3----------------|----------------------|--0-------------------|----------------------|
D|--1-------------------|--3-------------------|----------------------|--3-------------------|

     E  E  Q     Q          E  E  E  E  E  E       E  E  E  E  E  E       E  E  H              
D|--------------0-------|--0-----------0--3----|----------------------|--0-------------------|
A|----------------------|--------0--3----------|--0-----1--0--1--3----|--------0-------------|
F|--------2-------------|----------------------|--------2-------------|----------------------|
C|----------------------|-----0----------------|-----2----------------|-----0----------------|
G|-----3----------------|----------------------|--0-------------------|----------------------|
D|--1-------------------|--3-------------------|----------------------|--3-------------------|
                                                                         ^
     E  E  Q     E  E       E  E  E  E  E  E       E  E  E  E  E  E       E  E  H              
D|--------0--------0----|----------------------|----------------------|--0-------------------|
A|--------------3-------|--------------1--0----|--0-----------0--3----|--0-------------------|
F|--------2-------------|--2--------2----------|--------1--2----------|--------1-------------|
C|----------------------|-----0--3-------------|----------------------|----------------------|
G|-----3----------------|--0-------------------|-----2----------------|-----2----------------|
D|--1-------------------|----------------------|--0-------------------|--0-------------------|

     E  E  E  E  E  E       E  E  E  E  Q          E  E  E  E  E  E       E  E  E  E  E  E     
D|----------------------|--------------3-------|--------0--1-----0----|--7--------5----------|
A|-----------1-----3----|-----------1----------|--------------3-------|-----3--5-----3--5----|
F|--------4-----0-------|--------4-------------|----------------------|--------4-------------|
C|-----2----------------|-----3----------------|-----2----------------|-----3----------------|
G|--0-------------------|--0-------------------|--0-------------------|--0-------------------|
D|----------------------|----------------------|----------------------|----------------------|

     E  E  E  E  E  E       E  E  E  E  Q          E  E  E  E  E  E       E  E  H              
D|--------8--------7----|--5--------3--0-------|--0--------0----------|--0-------------------|
A|--------------5-------|-----0--3-------------|--------3--------3----|--------0-------------|
F|-----------7----------|----------------------|-----2--------2-------|----------------------|
C|----------------------|-----2----------------|----------------------|-----2----------------|
G|-----7----------------|----------------------|-----3----------------|----------------------|
D|--5-------------------|--3-------------------|--1-------------------|--3-------------------|
                                    T
     E  E  E  E  E  E       E  E  E  E  Q          E  E  E  E  E  E       E  E  Q     Q        
D|-----0--------0-------|--0-----0--7--0-------|--------0-----0-------|--0-------------------|
A|--------1--3-----3----|-----3--0-------------|-----3-----------3----|--------0-------------|
F|--------2-------------|----------------------|-----------2----------|--------------0-------|
C|-----2----------------|-----2----------------|----------------------|-----0----------------|
G|--0-------------------|----------------------|-----3----------------|----------------------|
D|----------------------|--3-------------------|--1-------------------|--3-------------------|

     E  E  E  E  E  E       E  E  H                E  E  E  E  E  E       E  E  H              
D|--1--------0--1-------|----------------------|--5-----------0-------|--0-------------------|
A|-----------------3----|--0-------------------|-----------3-----3----|--------2-------------|
F|--2-----2-------------|--------0-------------|--2-----2-------------|----------------------|
C|----------------------|-----0----------------|--2--2----------------|-----2----------------|
G|-----3----------------|----------------------|--0-------------------|--0-------------------|
D|--1-------------------|--3-------------------|----------------------|----------------------|

     E  E  E  E  Q          E  E  E  E  E  E       E  E  E  E  E  E       E  E  H              
D|-----0-----0----------|----------------------|-----0--------0-------|--0--7--0-------------|
A|--------3-------------|-----0--------0-------|--------1--3-----3----|--------0-------------|
F|--------2-----2-------|-----------0-----2----|--2-----2-------------|----------------------|
C|----------------------|--2-----2-------------|-----2----------------|-----0----------------|
G|-----3----------------|----------------------|--0-------------------|----------------------|
D|--1-------------------|--3-------------------|----------------------|--3-------------------|

     E  E  E  E  E  E       E  E  E  E  E  E       E  E  E  E  E  E       E  E  E  Q.          
D|-----5-----0--3-------|--0-------------------|----------------------|--------0-------------|
A|--------3--------3----|-----0--3-----1--0----|--------0--1-----1----|--3----(0)------------|
F|----------------------|-----------0----------|-----2--------4-------|-----2-----2----------|
C|----------------------|-----0----------------|-----2----------------|-----0----------------|
G|-----3----------------|----------------------|--0-------------------|----------------------|
D|--1-------------------|--3-------------------|----------------------|--3-------------------|

     E  E  E  E  E  E       E  E  E  E  E  E       E  E  E  E  E  E       E  E  Q     Q        
|-----5-----0-----0----|-----0-----0----------|-----------------0----|--------------0-------|
|--------3----(0)------|--1--------------0----|-----1-----1--3-------|--0----(0)------------|
|--------------0-------|--------0-----0-------|--------4-------------|--0-----0-------------|
|----------------------|----------------------|-----2----------------|-----0--2-------------|
|-----3----------------|----------------------|--0-------------------|----------------------|
|--1-------------------|--3-------------------|----------------------|--3-------------------|

                                                                     
                                                                          ^
     E  E  E  E  E  E       E  E  E  E  E  E       E  E  E  E  E  E       E  E  H              
|-----0-----0--3-------|-----5-----0--1--3----|--0-------------------|--0-------------------|
|--------3--------3----|--5-----3-------------|--------------0--3----|--0-------------------|
|----------------------|-----------2----------|--------1--2----------|--------1-------------|
|----------------------|-----0--3-------------|----------------------|----------------------|
|-----3----------------|--0-------------------|-----2----------------|-----2----------------|
|--1-------------------|----------------------|--0-------------------|--0-------------------|

       

     E  E  E  E  E  E       E  E  E  E  Q          E  E  E  E  E  E       E  E  E  E  E  E     
|----------------------|--------------3-------|--------0--1-----0----|--7--------5----------|
|-----------1-----3----|-----------1----------|--------------3-------|-----3--5-----3--5----|
|--------4-----0-------|--------4-------------|----------------------|--------4-------------|
|-----2----------------|-----3----------------|-----2----------------|-----3----------------|
|--0-------------------|--0-------------------|--0-------------------|--0-------------------|
|----------------------|----------------------|----------------------|----------------------|

                     

     E  E  E  E  E  E       E  E  E  E  Q          E  E  E  E  E  E       E  E  H              
|--------8--------7----|--5--------3--0-------|--0--------0----------|--0-------------------|
|--------------5-------|-----0--3-------------|--------3--------3----|--------0-------------|
|-----------7----------|----------------------|-----2--------2-------|----------------------|
|----------------------|-----2----------------|----------------------|-----2----------------|
|-----7----------------|----------------------|-----3----------------|----------------------|
|--5-------------------|--3-------------------|--1-------------------|--3-------------------|

                                                                     
                                     T
     E  E  E  E  E  E       E  E  E  E  Q          E  E  E  E  E  E       E  E  Q     Q        
|-----0--------0-------|--0-----0--7--0-------|--------0-----0-------|--0-------------------|
|--------1--3-----3----|-----3--0-------------|-----3-----------3----|--------0-------------|
|--------2-------------|----------------------|-----------2----------|--------------0-------|
|-----2----------------|-----2----------------|----------------------|-----0----------------|
|--0-------------------|----------------------|-----3----------------|----------------------|
|----------------------|--3-------------------|--1-------------------|--3-------------------|

                                              |--------RALL--------------------------------> 70 BPM
                                                                                ^
     E  E  E  E  E  E       E  E  H                E  E  E  E  E  E       E  E  H                  
|--1--------0--1-------|----------------------|--5-----------0-------|--0-------------------|
|-----------------3----|--0-------------------|-----------3-----3----|--------2L------------|
|--2-----2-------------|--------0-------------|--2-----2-------------|--------2L------------|
|----------------------|-----0----------------|--2--2----------------|-----2--2L------------|
|-----3----------------|----------------------|--0-------------------|--0-----0L------------|
|--1-------------------|--3-------------------|----------------------|----------------------|

        

     H.                  
|----------------------||
|--L-------------------||
|--L-------------------||
|--L-------------------||
|--L-------------------||
|----------------------||







Login to Edit
Edit
YouTube
Video
View Sheet Music
Sheet
Music
Print
Speed:
Play Intro (login for the full song)
Play
Intro
Sustain:
Download midi (intro) ...

 Rate:
5 star
4 star
3 star
2 star
1 star
 

Comments (0)
 

No comments yet...

Comment on this tab   -   Unhelpful comments are exterminated.
  Your Guest Name:
      [Member Login]
  Comments:
 

Don't understand the tab?
See "How to Read Guitar Tabs".
Supported tags:
<i>italics</i>
<b>bold</b>
<u>underline</u>
<tab>tab lines</tab>
  Are you a spam robot?

If not, solve the equation:




[70946 TabNabbers online]
©2021 TabNabber.com - Musician Supported Contact us Advertising Merchandise Privacy Policy Terms of Use facebook Twitter