TabNabber Tabs   Musician Supported
  Music Tabs
Espa˝ol English
Franšais Русский
Artist: # A B C D E F G H I J K L M N O P Q R S T U V W X Y Z
guitar

Guitar Tab, Chords



(0 from 0 votes)
764 Views, Last Update 3 months ago
by: Gman
guest
[Guest]
e|----------------------------------|----------------------------------|
b|----------0---------------0-------|---------0----------------0-------|
g|------4-----4---4-----4-----4---4-|-----4-----4---4------4-----4---4-|
d|----6---6-----6-----6---6-----6---|---6---6-----6------6---6-----6---|
a|--4---------------4---------------|-0----------------0---------------|
e|----------------------------------|----------------------------------|
 
e|----------------------------------|----------------------------------|
b|----------0---------------0-------|---------0---------------0--------|
g|------4-----4---4-----4-----4---4-|-----4-----4---4-----4-----4---4--|
d|----6---6-----6-----6---6-----6---|---6---6-----6-----6---6-----6----|
a|--2---------------2---------------|-0---------------0----------------|
e|----------------------------------|----------------------------------|
 
Guitar 2                                                      |__?___|
e|----------------------------------|----------------------------------|
b|--5-----5-----5-----5-----5---5---|-5-----5-----5-----5-----5---5----|
g|----4-----4-----4-----4-----4---4-|---4-----4-----4-----4-----4---4--|
d|------2-----2-----2-----2---------|-----2-----2-----2-----2----------|
a|----------------------------------|----------------------------------|
e|----------------------------------|----------------------------------|
 
e|----------------------------------|----------------------------------|
b|--4-----4-----4-----4-----4---4---|-5-----5-----5------5----5---5----|
g|----4-----4-----4-----4-----4---4-|---4-----4-----4------4----4---4--|
d|------2-----2-----2-----2---------|----2-----2------2-----2----------|
a|----------------------------------|----------------------------------|
e|----------------------------------|----------------------------------|
 
e|-------------------------|--------------------------0---------|
b|-------------------------|---------0--------------------------|
g|-------------------------|-----2-----2---2------2------2---2--|
d|-----6----2-------6---2--|---2---2-----2------2---2------2----|
a|-----4----0-------4---0--|-0----------------0-----------------|
e|--0-----------0----------|------------------------------------|


Login to Edit
Edit
YouTube
Video
View Sheet Music
Sheet
Music
Print
Speed:
Play Intro (login for the full song)
Play
Intro
Sustain:
Download midi (intro) ...

 Rate:
5 star
4 star
3 star
2 star
1 star
 

Comments (0)
 

No comments yet...

Comment on this tab   -   Unhelpful comments are exterminated.
  Your Guest Name:
      [Member Login]
  Comments:
 

Don't understand the tab?
See "How to Read Guitar Tabs".
Supported tags:
<i>italics</i>
<b>bold</b>
<u>underline</u>
<tab>tab lines</tab>
  Are you a spam robot?

If not, solve the equation:




[67141 TabNabbers online]
©2021 TabNabber.com - Musician Supported Contact us Advertising Merchandise Privacy Policy Terms of Use facebook Twitter