TabNabber Tabs   Musician Supported
  Music Tabs
Espa˝ol English
Franšais Русский
Artist: # A B C D E F G H I J K L M N O P Q R S T U V W X Y Z
guitar

Guitar Tab, Chords



(0 from 0 votes)
480 Views, Last Update 2 months ago
by: Gman
guest
[Guest]
e|-----0-----|-----------|-----2-----|-----------|-----0-----|
B|-0-------0-|-3p1-0-----|-0---------|-----------|-0-------0-|
G|-0-------0-|-2---0-----|---------2-|-2---0-----|-0-------0-|
D|-----------|---------2-|-1---------|-2---------|-----------|
A|-----------|-----------|-----------|-----------|-----------|
E|-0---------|(0)--------|-----------|-----------|-0---------|
 
                         <---- 1. -----> <--- 2. --->
e|---------0-|(0)--------|-------------:||-----------||:-----0---0-|
B|-3p1-0-----|-----------|-0-----------:||-0---------||:-0---------|
G|-2---0-----|-----0---2-|-------------:||-----------||:-----------|
D|-----------|-----2---4-|-1-----------:||-1---------||:-----------|
A|-----------|-3---------|---2---0-----:||-----2---0-||:-----------|
E|(0)--------|-----------|---------3-2-:||-----------||:-4---------|
 
e|-0---------|-----1---0---|-----------|-----------|-------------|
B|-1---3---1-|-0---------0-|-3-------1-|-1---1---1-|-0-------0---|
G|-----4---2-|---2---2-1---|-----1---2-|-2---2---2-|-2-------0---|
D|-----------|-0-------2---|---2---2---|---------2-|-1-------2-0-|
A|-0---------|-------------|-0---------|-0---3-----|-----2-------|
E|-----------|-------------|-----------|-----------|-------------|
 
e|-0---0---0-|-----------|-----0-----|-----------|-----2-----|
B|-----------|-4---0-----|-0-------0-|-3p1-0-----|-0---------|
G|-0---0---0-|---------2-|-0-------0-|-2---0-----|---------2-|
D|-----------|-4---------|-----------|---------2-|-1---------|
A|-3---2---1-|-2---------|-----------|-----------|-----------|
E|-----------|-----------|-0---------|(0)--------|-----------|
 
                              (dotted 1/8 then 1/16)
e|-----------|-----0-----|-----------|----0-3---2-|-0---------:|
B|-----------|-0-------0-|-3---1-----|-0----0-----|-----------:|
G|-2---0-----|-0-------1-|---1-2-----|-0--------2-|-0---------:|
D|-2---------|-----------|-----------|----------1-|-2---------:|
A|-----------|-----------|-0-------0-|-2----------|-----------:|
E|-----------|-0---------|-----------|------------|-----0-----:|


Login to Edit
Edit
YouTube
Video
View Sheet Music
Sheet
Music
Print
Speed:
Play Intro (login for the full song)
Play
Intro
Sustain:
Download midi (intro) ...

 Rate:
5 star
4 star
3 star
2 star
1 star
 

Comments (0)
 

No comments yet...

Comment on this tab   -   Unhelpful comments are exterminated.
  Your Guest Name:
      [Member Login]
  Comments:
 

Don't understand the tab?
See "How to Read Guitar Tabs".
Supported tags:
<i>italics</i>
<b>bold</b>
<u>underline</u>
<tab>tab lines</tab>
  Are you a spam robot?

If not, solve the equation:




[70857 TabNabbers online]
©2021 TabNabber.com - Musician Supported Contact us Advertising Merchandise Privacy Policy Terms of Use facebook Twitter