TabNabber Tabs   Musician Supported
  Music Tabs
Espa˝ol English
Franšais Русский
Artist: # A B C D E F G H I J K L M N O P Q R S T U V W X Y Z
guitar

Guitar Tab, Chords



(0 from 0 votes)
107 Views, Last Update 1 month ago
by: Anonymous
guest
[Guest]
|--------|     |-------|     |-------|     |-------|
|-10p9p7-|     |-8p7p5-|     |-7p6p3-|     |-8p7p5-|
|--------|     |-------|     |-------|     |-------|
|--------|x8   |-------|x8   |-------|x8   |-------|
|--------|     |-------|     |-------|     |-------|
|--------|     |-------|     |-------|     |-------|
 
|------------------------------------------------------------|
|------------------------------------------------------------|
|-----------------------------------12-11-9-11-9h11p9-9h11p9-|
|-12-12-14-16-9-9--14-16-12---14-16--------------------------|
|------------------------------------------------------------|
|------------------------------------------------------------|
 

|--------------------------------------------------------|
|----------------------------------19/20-20--------------|
|-------------------14-16-18/19-21-----------------------|
|-12-12-14-16/17-17--------------------------------------|
|--------------------------------------------------------|
|--------------------------------------------------------|
 
verse:

|----------------------------------------|
|----------------------------------------|
|-7-7-7777--6-6-6666--4-4-4444-----------|
|-7-7-5555--4-4-4444--4-4-4444--5-5-5555-|
|-5-5-5555--4-4-4444--2-2-2222--5-5-5555-|
|-------------------------------3-3-3333-|
 
|--------------------------------------------------------|
|--------------------------------------------------------|
|-9-9-9999--8-8-8888--7-7-7777-x7x7----------------------|
|-9-9-9999--8-8-8888--7-7-7777-x7x7----------------------|
|-7-7-7777--6-6-6666--5-5-5555-x5x5----------------------|
|--------------------------------------------------------|
 
chorus:
|---------------------|
|---------------------|
|---7----6----4----2--|
|--7-7--6-6--4-4--2-2-|
|-5----4----2----0----|
|---------------------|
 
 
|------------------|
|----8-7---7-------|
|---7---9-7^?9~7~9~-|
|--7---------------|
|-5----------------|
|------------------|
 

post chorus: Palm Mute and temelo pick

|------------------------------------------|
|------------------------------------------|
|-7----6----4-------------9----8----7----7-|
|-7----6----4----5--------9----8----7----7-|
|-5----4----2----5--------7----6----5----5-|
|----------------3-------------------------|
 

interlude:

what i said to her^?.when I said to her

PM_____________
|--------------------------|
|--------------------------|
|-444444444444-------------|
|-444444444444------8------|
|-222222222222------8------|
|-------------------6------|
 

the solo is played between the 9th and 15th frets but I can't quite get it all, so just ad
lib and smile like you know what you're doing. 

outro:
|----------------------------------------|
|----------------------------------------|
|-7-7-7777--6-6-6666--7-7-7777--9-9-9999-|
|-7-7-7777--6-6-6666--7-7-7777--9-9-9999-|
|-5-5-5555--4-4-4444--5-5-5555--7-7-7777-|
|----------------------------------------|
 
|------|
|------|
|-7~7/-|
|-7~7/-|
|-7~5/-|
|------|


Login to Edit
Edit
YouTube
Video
View Sheet Music
Sheet
Music
Print
Speed:
Play Intro (login for the full song)
Play
Intro
Sustain:
Download midi (intro) ...

 Rate:
5 star
4 star
3 star
2 star
1 star
 

Comments (0)
 

No comments yet...

Comment on this tab   -   Unhelpful comments are exterminated.
  Your Guest Name:
      [Member Login]
  Comments:
 

Don't understand the tab?
See "How to Read Guitar Tabs".
Supported tags:
<i>italics</i>
<b>bold</b>
<u>underline</u>
<tab>tab lines</tab>
  Are you a spam robot?

If not, solve the equation:




[7784 TabNabbers online]
©2021 TabNabber.com - Musician Supported Contact us Advertising Merchandise Privacy Policy Terms of Use facebook Twitter