TabNabber Tabs   Musician Supported
  Music Tabs
Espa˝ol English
Franšais Русский
Artist: # A B C D E F G H I J K L M N O P Q R S T U V W X Y Z
guitar

Guitar Tab, Chords



(0 from 0 votes)
145 Views, Last Update 29 days ago
by: Anonymous
guest
[Guest]
e|-------------------------------------------|
b|-------------------------------------------|
g|------------------------------------|------------3---------------------------------------------
(8)-(10)--1-----1--|-6---3---1--3--1--3---------------------------------------
-7----9---0--0--2--|-5---4---0--0--0--2---------------------------------------
-6---10---2--0--3--|-7---5---2--0--2--1---------------------------------------
-7----8---3--2--3--|-5---5---3--2--0--2---------------------------------------
-------------------|----------------------------------------------------------
Stay out with me tonight...                                                     

------------------|------------3------3---------------------------------------
-8--10---1-----1--|-6---3---1--3--1---3---------------------------------------
-7---9---0--0--2--|-5---4---0--0--0---0---------------------------------------
-6--10---2--0--2--|-7---5---2--0--2---0---------------------------------------
-7---8---3--2--3--|-5---5---3--2--0---2---------------------------------------
------------------|-----------------------------------------------------------
 I know it's cold...                                                            G

-------------------------------------|---------------------------7------------
-1------1---1---------------------6--|-1------1----1---6-6---8---6------------
-2--0h2-----0------0------------5----|-2--0h2---2--0---5-5---7---7------------
-3----------2--0h2------------7------|-3-----------2---7-7---6---6------------
------------------------5------------|-------------3---5-----7----------------
-------------------------------------|----------------------------------------
                                                                              

-0------0---5--|-----------------5--------7-----------------------------------
-1-----1----6--|----1------1--6--6----8---6-----------------------------------
-2----0-----5--|---2------0---5--5----7---7-----------------------------------
-3---2------7--|--3------2----7--7----6---6-----------------------------------
-3--3-------5--|-3------3-----5-------7---------------------------------------
---------------|--------------------------------------------------------------
 Remain relaxed...                                                            

------------------------------------------------------------------------------
-----------8-10------8------------------------------------6-------------------
-------7-9-------------7-----------------7--------------x----9-7--------------
----10-------------------5-----7-10-7-10--------10---------------10-9-7\5-----
------------------------------------------------------------------------------
------------------------------------------------------------------------------
    solo                                                rake                  

-------------------------10--7------------------------------------------------
-----------------8-10---x------8----------------------------------------------
-----5---7-5-9-7-----------------9---------------7-9-------------------5---5--
-------7---------------------------9-7----7-9-10-----7-------5---5-6-7---7----
---------------------------------------10------------------7---7--------------
------------------------------------------------------------------------------
                        rake & pick                                           

------------------------------------------------------------------------------
------------------------------------------------------------------------------
-7h8p7p5---5h7/9-------9/10--9--7---------------------------------------------
---------7------------------------10-7----7-10--------------------------------
---------------------------------------10------7----------7-10----------------
-------------------------------------------------------10------7--------------
                                                                              

------------------------------------------------------------------------------
------------------------------------------------------------------------------
--------------------7------7/9------7-9/10--9-7-------------------------------
---------------7-10---7-10-----10-7-------------------------------------------
-----7----7-10----------------------------------------------------------------
-5/7---10---------------------------------------------------------------------
                                         pick notes then return to the chorus 
--------------------------|
d|-------------------------------------------|
a|-------------------------------------------|
e|-------------------------------------------|


Login to Edit
Edit
YouTube
Video
View Sheet Music
Sheet
Music
Print
Speed:
Play Intro (login for the full song)
Play
Intro
Sustain:
Download midi (intro) ...

 Rate:
5 star
4 star
3 star
2 star
1 star
 

Comments (0)
 

No comments yet...

Comment on this tab   -   Unhelpful comments are exterminated.
  Your Guest Name:
      [Member Login]
  Comments:
 

Don't understand the tab?
See "How to Read Guitar Tabs".
Supported tags:
<i>italics</i>
<b>bold</b>
<u>underline</u>
<tab>tab lines</tab>
  Are you a spam robot?

If not, solve the equation:




[4203 TabNabbers online]
©2021 TabNabber.com - Musician Supported Contact us Advertising Merchandise Privacy Policy Terms of Use facebook Twitter