TabNabber Tabs   Musician Supported
  Music Tabs
Espa˝ol English
Franšais Русский
Artist: # A B C D E F G H I J K L M N O P Q R S T U V W X Y Z
guitar

Guitar Tab, Chords



(0 from 0 votes)
133 Views, Last Update 29 days ago
by: Anonymous
guest
[Guest]
e---------------------------|
b---------------------------|
g---------------------------|
d-------3-4-------3-4-3-----|
a---3-4-------3-4-------4-3-|
E-0---------0---------------|
 
e---------------|
b---------------|
g---------------|
d-5-5-5-5-3-3-3-|
a-3-3-3-3-1-1-1-|
E---------------|

e-4---4-4-2-4---4-5-4-2---2-4-2-0---0-0-2--7-5-4-5--|
b---2---------2---------0---------0-----------------|
g---------------------------------------------------|
d---------------------------------------------------|
a---------------------------------------------------|
E---------------------------------------------------|

e-----------------4---4---4-2-4---4---4-2----------4-4-4-4-|
b-5-5-7-5-4-4-4-5---2---2-------2---2------5-5-5-5---------|
g----------------------------------------------------------|
d----------------------------------------------------------|
a----------------------------------------------------------|
E----------------------------------------------------------|

e-4---4-4-2-4---4-5-4-2---2-4-2-0---0-0-2--7-5-4-5--|
b---2---------2---------0---------0-----------------|
g---------------------------------------------------|
d---------------------------------------------------|
a---------------------------------------------------|
E---------------------------------------------------|

e-----------------4---4---4-2-4---4---4-2----------4-4-4-4-|
b-5-5-7-5-4-4-4-5---2---2-------2---2------5-5-5-5---------|
g----------------------------------------------------------|
d----------------------------------------------------------|
a----------------------------------------------------------|
E----------------------------------------------------------|

e-4---4-4-2-4---4-5-4-2---2-4-2-0---0-0-2--7-5-4-5--|
b---2---------2---------0---------0-----------------|
g---------------------------------------------------|
d---------------------------------------------------|
a---------------------------------------------------|
E---------------------------------------------------|

e-------------------------------------------|
b-------------------------------------------|
g-------------------------------------------|
d-------3-4-------3-4-3-----5-5-5-5-3-3-3-3-|
a---3-4-------3-4-------4-3-3-3-3-3-1-1-1-1-|
E-0---------0-------------------------------|

e-------------------------------------------|
b-------------------------------------------|
g-------------------------------------------|
d-------3-4-------3-4-3-----5-5-5-5-3-3-3-3-|
a---3-4-------3-4-------4-3-3-3-3-3-1-1-1-1-|
E-0---------0-------------------------------|

e-------------------------------------------|
b-------------------------------------------|
g-------------------------------------------|
d-------3-4-------3-4-3-----5-5-5-5-3-3-3-3-|
a---3-4-------3-4-------4-3-3-3-3-3-1-1-1-1-|
E-0---------0-------------------------------|

e-4---4-4-2-4---4-4-2-|
b---2---------2-------|
g---------------------|
d---------------------|
a---------------------|
E---------------------|

e-9-9-9-7-4-5-4-5-4-4-9-----7-----5-4-4-4-14-|
b-----------------------9-7---7-5------------|
g--------------------------------------------|
d--------------------------------------------|
a--------------------------------------------|
E--------------------------------------------|
 
e-1-6-1-9-1-9-b-2-1-b-1-9-1-6--2-1------|
b---------------------------------------|
g---------------------------------------|
d---------------------------------------|
a---------------------------------------|
E---------------------------------------|

e----------|
b----------|
g----------|
d----------|
a----------|
E-0-0-0-0--|


Login to Edit
Edit
YouTube
Video
View Sheet Music
Sheet
Music
Print
Speed:
Play Intro (login for the full song)
Play
Intro
Sustain:
Download midi (intro) ...

 Rate:
5 star
4 star
3 star
2 star
1 star
 

Comments (0)
 

No comments yet...

Comment on this tab   -   Unhelpful comments are exterminated.
  Your Guest Name:
      [Member Login]
  Comments:
 

Don't understand the tab?
See "How to Read Guitar Tabs".
Supported tags:
<i>italics</i>
<b>bold</b>
<u>underline</u>
<tab>tab lines</tab>
  Are you a spam robot?

If not, solve the equation:




[7680 TabNabbers online]
©2021 TabNabber.com - Musician Supported Contact us Advertising Merchandise Privacy Policy Terms of Use facebook Twitter