TabNabber Tabs   Musician Supported
  Music Tabs
Espa˝ol English
Franšais Русский
Artist: # A B C D E F G H I J K L M N O P Q R S T U V W X Y Z
guitar

Guitar Tab, Chords



(0 from 0 votes)
125 Views, Last Update 27 days ago
by: Anonymous
guest
[Guest]
E|------------------------------|--------------------------------|
B|-------1-------------1--------|-------1--------------1-------1-|
G|----------2---2---------0---0-|----------2---2-----0-------0---|
D|-----2------2------2------2---|------------3-----2-------0-----|
A|--0-------------3-------------|-----3----------3-------2-------|
E|------------------------------|--1-----------------------------|
 
e|------------------------------|------------------------------|
B|-------1-------------1--------|-------3-------------3--------|
G|----------2---2---------0---0-|----------0-------------0-----|
D|-----2------2------2------2---|------------0-------------0---|
A|--0-------------3-------------|-----2--------2----2--------2-|
E|------------------------------|--3-------------3-------------|
 
e|------------------------------|--------------------------------|
B|-------1-------------1--------|----------------------1-------1-|
G|----------2---2---------0---0-|-------1------------2-------0---|
D|-----2------2------2------2---|----------2---2---2-------0-----|
A|--0-------------3-------------|-----2------2---0---------------|
E|------------------------------|--0---------------------3-------|
 
e|-----------------------------|------------------------------|
B|-------1--------1------------|-------1-------------1--------|
G|----------2---2-1------1-----|----------0---0---------0---0-|
D|------------3---3---3----3---|-----2------2------2------2---|
A|-----3----------3----------3-|--3-------------3-------------|
E|--1-------------1------------|------------------------------|
 
e||-------------------------------|------------------------------|
B||--------1-------------1--------|-------1-------------1--------|
G||*----------0---0---------0---0-|----------2---2---------2---2-|
D||*-----2------2------2------2---|-----2------2------2------2---|
A||---3-------------3-------------|--0-------------0-------------|
E||-------------------------------|------------------------------|
 
e|------------------------------|-------------------------------||
B|-------1-------------1--------|-------1-------------3---------||
G|----------2---2---------2---2-|----------0---0---------0-----*||
D|------------3-------------3---|-----2------2-------------0---*||
A|-----3-------------3----------|--3----------------2--------2--||
E|--1-------------1-------------|----------------3--------------||
 
e|------------------------------|--------------------------------|
B|-------1-------------1--------|-------1--------------1-------1-|
G|----------2---2---------0---0-|----------2---2-----0-------0---|
D|-----2------2------2------2---|------------3-----2-------0-----|
A|--0-------------3-------------|-----3----------3-------2-------|
E|------------------------------|--1-----------------------------|
 
e|------------------------------|------------------------------|
B|-------1-------------1--------|-------3-------------3--------|
G|----------2---2---------0---0-|----------0-------------0-----|
D|-----2------2------2------2---|------------0-------------0---|
A|--0-------------3-------------|-----2--------2----2--------2-|
E|------------------------------|--3-------------3-------------|
 
e|------------------------------|--------------------------------|
B|-------1-------------1--------|----------------------1-------1-|
G|----------2---2---------0---0-|-------1------------2-------0---|
D|-----2------2------2------2---|----------2---2---2-------0-----|
A|--0-------------3-------------|-----2------2---0---------------|
E|------------------------------|--0---------------------3-------|
 
e|------------------------------|------------------------------|
B|-------1--------1----1--------|-------1-------------1--------|
G|----------2---2-1-------1-----|----------0---0---------0---0-|
D|------------3---3--3------3---|-----2------2------2------2---|
A|-----3----------3-----------3-|--3-------------3-------------|
E|--1-------------1-------------|------------------------------|
 
e||-------------------------------|------------------------------|
B||--------1-------------1--------|-------1-------------1--------|
G||*----------0---0---------0---0-|----------2---2---------2---2-|
D||*-----2------2------2------2---|-----2------2------2------2---|
A||---3-------------3-------------|--0-------------0-------------|
E||-------------------------------|------------------------------|
 
e|------------------------------|-------------------------------||
B|-------1-------------1--------|-------1-------------3---------||
G|----------2---2---------2---2-|----------0---0---------0-----*||
D|------------3-------------3---|-----2------2-------------0---*||
A|-----3-------------3----------|--3----------------2--------2--||
E|--1-------------1-------------|----------------3--------------||
 
e|------------------------------|--------------------------------|
B|-------1-------------1--------|-------1--------------1-------1-|
G|----------2---2---------0---0-|----------2---2-----0-------0---|
D|-----2------2------2------2---|------------3-----2-------0-----|
A|--0-------------3-------------|-----3----------3-------2-------|
E|------------------------------|--1-----------------------------|
 
e|------------------------------|------------------------------|
B|-------1-------------1--------|-------3-------------3--------|
G|----------2---2---------0---0-|----------0-------------0-----|
D|-----2------2------2------2---|------------0-------------0---|
A|--0-------------3-------------|-----2--------2----2--------2-|
E|------------------------------|--3-------------3-------------|
 
e|------------------------------|--------------------------------|
B|-------1-------------1--------|----------------------1-------1-|
G|----------2---2---------0---0-|-------1------------2-------0---|
D|-----2------2------2------2---|----------2---2---2-------0-----|
A|--0-------------3-------------|-----2------2---0---------------|
E|------------------------------|--0---------------------3-------|
 
e|------------------------------|------------------------------|
B|-------1--------1----1--------|-------1-------------1--------|
G|----------2---2-1-------1-----|----------0---0---------0---0-|
D|------------3---3--3------3---|-----2------2------2------2---|
A|-----3----------3-----------3-|--3-------------3-------------|
E|--1-------------1-------------|------------------------------|
 
e||-------------------------------|------------------------------|
B||--------1-------------1--------|-------1-------------1--------|
G||*----------0---0---------0---0-|----------2---2---------2---2-|
D||*-----2------2------2------2---|-----2------2------2------2---|
A||---3-------------3-------------|--0-------------0-------------|
E||-------------------------------|------------------------------|
 
e|------------------------------|-------------------------------||
B|-------1-------------1--------|-------1-------------3---------||
G|----------2---2---------2---2-|----------0---0---------0-----*||
D|------------3-------------3---|-----2------2-------------0---*||
A|-----3-------------3----------|--3----------------2--------2--||
E|--1-------------1-------------|----------------3--------------||
 
e|------------------------------|------------------------------|
B|-------1-------------1--------|-------1-------------1--------|
G|----------1---1---------1---1-|----------1---1---------1---1-|
D|------------3-------------3---|------------3-------------3---|
A|-----3-------------3----------|-----3-------------3----------|
E|--1-------------1-------------|--1-------------1-------------|
 
e|------------------------------|--------------------------------|
B|-------1-------------1--------|-------1--------------1-------1-|
G|----------2---2---------0---0-|----------2---2-----0-------0---|
D|-----2------2------2------2---|------------3-----2-------0-----|
A|--0-------------3-------------|-----3----------3-------2-------|
E|------------------------------|--1-----------------------------|
 
e|------------------------------|------------------------------|
B|-------1-------------1--------|-------3-------------3--------|
G|----------2---2---------0---0-|----------0-------------0-----|
D|-----2------2------2------2---|------------0-------------0---|
A|--0-------------3-------------|-----2--------2----2--------2-|
E|------------------------------|--3-------------3-------------|
 
e|------------------------------|--------------------------------|
B|-------1-------------1--------|----------------------1-------1-|
G|----------2---2---------0---0-|-------1------------2-------0---|
D|-----2------2------2------2---|----------2---2---2-------0-----|
A|--0-------------3-------------|-----2------2---0---------------|
E|------------------------------|--0---------------------3-------|
 
e|------------------------------|------------------------------|
B|-------1--------1----1--------|-------1-------------1--------|
G|----------2---2-1-------1-----|----------0---0---------0---0-|
D|------------3---3--3------3---|-----2------2------2------2---|
A|-----3----------3-----------3-|--3-------------3-------------|
E|--1-------------1-------------|------------------------------|
 
e|--------------------|-------------------||
B|--1--------1--------|--1----------------||
G|--2--------1--------|--0----------------||
D|--3--------3--------|--2----------------||
A|--3--------3--------|--3----------------||
E|--1--------1--------|-------------------||


Login to Edit
Edit
YouTube
Video
View Sheet Music
Sheet
Music
Print
Speed:
Play Intro (login for the full song)
Play
Intro
Sustain:
Download midi (intro) ...

 Rate:
5 star
4 star
3 star
2 star
1 star
 

Comments (0)
 

No comments yet...

Comment on this tab   -   Unhelpful comments are exterminated.
  Your Guest Name:
      [Member Login]
  Comments:
 

Don't understand the tab?
See "How to Read Guitar Tabs".
Supported tags:
<i>italics</i>
<b>bold</b>
<u>underline</u>
<tab>tab lines</tab>
  Are you a spam robot?

If not, solve the equation:




[3738 TabNabbers online]
©2021 TabNabber.com - Musician Supported Contact us Advertising Merchandise Privacy Policy Terms of Use facebook Twitter