TabNabber Tabs   Musician Supported
  Music Tabs
Espa˝ol English
Franšais Русский
Artist: # A B C D E F G H I J K L M N O P Q R S T U V W X Y Z
guitar

Guitar Tab, Chords



(0 from 0 votes)
329 Views, Last Update 17 days ago new
by: dandabs
guest
[Guest]
[Intro]
 
Guitar 1
e|-------------------------|----------------------7--|-------------------------|----------------------7--|
B|--------7h8p7------7-----|--------7h8p7------7-----|--------7h8p7------7-----|--------7h8p7------7-----|
G|----7----------10-----7--|----7----------10--------|----7----------10-----7--|----7----------10--------|
D|-9-----------------------|-9-----------------------|-9-----------------------|-9-----------------------|
A|-------------------------|-------------------------|-------------------------|-------------------------|
E|-------------------------|-------------------------|-------------------------|-------------------------|
Guitar 2
e|-------------------------|-------------------------|-------------------------|-------------------------|
B|-------------------------|-------------------------|-------------------------|-------------------------|
G|-------------------------|-------------------------|-------------------------|-------------------------|
D|-------------------------|-------------------------|-9~----------------------|-7~----------------------|
A|-10~---------------------|-------------------------|-------------------------|-------------------------|
E|-------------------------|-------------------------|-------------------------|-------------------------|
 
Guitar 1
e|-------------------------|----------------------7--|-------------------------|-------------------------|
B|--------7h8p7------7-----|--------7h8p7------7-----|--------7h8p7------7-----|-------------------------|
G|----7----------10-----7--|----7-----------9--------|----7----------10-----7--|-------------------------|
D|-9-----------------------|-9-----------------------|-9-----------------------|-------------------------|
A|-------------------------|-------------------------|-------------------------|-------------------------|
E|-------------------------|-------------------------|-------------------------|-------------------------|
Guitar 2
e|-------------------------|-------------------------|-------------------------|-------------------------|
B|-------------------------|-------------------------|-------------------------|-------------------------|
G|-------------------------|-------------------------|-------------------------|-------------------------|
D|-------------------------|-------------------------|-------------------------|-------------------------|
A|-10~---------------------|-------------------------|-------------------------|-------------------------|
E|-------------------------|-------------------------|-7~----------------------|-5-----------------------|
 
 
[Riff]
 
Guitar 1
e|-7--7--7--7--7--7--7--7--|-7--7--7--7--7--7--7--7--|-7--7--7--7--7--7--7--7--|-5--5--5--5--5--5--5--5--|
B|-7--7--7--7--7--7--7--7--|-7--7--7--7--7--7--7--7--|-7--7--7--7--7--7--7--7--|-5--5--5--5--5--5--5--5--|
G|-7--7--7--7--7--7--7--7--|-7--7--7--7--7--7--7--7--|-7--7--7--7--7--7--7--7--|-6--6--6--6--6--6--6--6--| x2
D|-9--9--9--9--9--9--9--9--|-9--9--9--9--9--9--9--9--|-9--9--9--9--9--9--9--9--|-7--7--7--7--7--7--7--7--|
A|-10-10-10-10-10-10-10-10-|-10-10-10-10-10-10-10-10-|-9--9--9--9--9--9--9--9--|-7--7--7--7--7--7--7--7--|
E|-------------------------|-------------------------|-7--7--7--7--7--7--7--7--|-5--5--5--5--5--5--5--5--|
Guitar 2
e|-------------------------|-------------------------|-------------------------|-------------------------|
B|-------------------------|-------------------------|-------------------------|-------------------------|
G|-------------------------|-------------------------|-------------------------|-------------------------| x2
D|-------------------------|-------------------------|-------------------------|-------------------------|
A|-9--7-----------------7--|-9--7--------------10-9--|-------------------9--7--|-------------------------|
E|-------10-7-----7--10----|-------10-7--------------|-------------------------|-------------------------|
 
 
[Verse 1]
 
e|-7-----------------------|----------------7-----7--|----------------7-----5--|----------------5-----7--|
B|-7-----------------------|----------------7-----7--|----------------7-----5--|----------------5-----7--|
G|-7-----------------------|----------------7-----7--|----------------7-----6--|----------------6-----7--|
D|-9-----------------------|----------------9-----9--|----------------9-----7--|----------------7-----9--|
A|-10----------------------|----------------10----9--|----------------9-----7--|----------------7-----10-|
E|-------------------------|----------------------7--|----------------7-----5--|----------------5--------|
 
e|(7)----------------------|----------------7-----7--|----------------7-----5--|-------------------------|
B|(7)----------------------|----------------7-----7--|----------------7-----5--|-------------------------|
G|(7)----------------------|----------------7-----7--|----------------7-----6--|-------------------------|
D|(9)----------------------|----------------9-----9--|----------------9-----7--|-------------------------|
A|(10)---------------------|----------------10----9--|----------------9-----7--|-------------------------|
E|-------------------------|----------------------7--|----------------7-----5--|-------------------------|
 
 
[Riff]
 
Guitar 1
e|-7--7--7--7--7--7--7--7--|-7--7--7--7--7--7--7--7--|-7--7--7--7--7--7--7--7--|-5--5--5--5--5--5--5--5--|
B|-7--7--7--7--7--7--7--7--|-7--7--7--7--7--7--7--7--|-7--7--7--7--7--7--7--7--|-5--5--5--5--5--5--5--5--|
G|-7--7--7--7--7--7--7--7--|-7--7--7--7--7--7--7--7--|-7--7--7--7--7--7--7--7--|-6--6--6--6--6--6--6--6--| x2
D|-9--9--9--9--9--9--9--9--|-9--9--9--9--9--9--9--9--|-9--9--9--9--9--9--9--9--|-7--7--7--7--7--7--7--7--|
A|-10-10-10-10-10-10-10-10-|-10-10-10-10-10-10-10-10-|-9--9--9--9--9--9--9--9--|-7--7--7--7--7--7--7--7--|
E|-------------------------|-------------------------|-7--7--7--7--7--7--7--7--|-5--5--5--5--5--5--5--5--|
Guitar 2
e|-------------------------|-------------------------|-------------------------|-------------------------|
B|-------------------------|-------------------------|-------------------------|-------------------------|
G|-------------------------|-------------------------|-------------------------|-------------------------| x2
D|-------------------------|-------------------------|-------------------------|-------------------------|
A|-9--7-----------------7--|-9--7--------------10-9--|-------------------9--7--|-------------------------|
E|-------10-7-----7--10----|-------10-7--------------|-------------------------|-------------------------|
 
 
[Verse 2]
 
e|-7-----------------------|----------------7-----7--|----------------7-----5--|----------------5-----7--|
B|-7-----------------------|----------------7-----7--|----------------7-----5--|----------------5-----7--|
G|-7-----------------------|----------------7-----7--|----------------7-----6--|----------------6-----7--|
D|-9-----------------------|----------------9-----9--|----------------9-----7--|----------------7-----9--|
A|-10----------------------|----------------10----9--|----------------9-----7--|----------------7-----10-|
E|-------------------------|----------------------7--|----------------7-----5--|----------------5--------|
 
e|(7)----------------------|----------------7-----7--|----------------7-----5--|-------------------------|
B|(7)----------------------|----------------7-----7--|----------------7-----5--|-------------------------|
G|(7)----------------------|----------------7-----7--|----------------7-----6--|-------------------------|
D|(9)----------------------|----------------9-----9--|----------------9-----7--|-------------------------|
A|(10)---------------------|----------------10----9--|----------------9-----7--|-------------------------|
E|-------------------------|----------------------7--|----------------7-----5--|-------------------------|
 
 
[Pre-Chorus]
 
e|-------------------------|----------------------7--|-------------------------|----------------------7--|
B|--------7h8p7------7-----|--------7h8p7------7-----|--------7h8p7------7-----|--------7h8p7------7-----|
G|----7----------10-----7--|----7----------10--------|----7----------10-----7--|----7----------10--------| x2
D|-9-----------------------|-9-----------------------|-9-----------------------|-9-----------------------|
A|-------------------------|-------------------------|-------------------------|-------------------------|
E|-------------------------|-------------------------|-------------------------|-------------------------|
 
 
[Chorus]
 
Guitar 1
e|-7--7--7--7--7--7--7--7--|-7--7--7--7--7--7--7--7--|-7--7--7--7--7--7--7--7--|-5--5--5--5--5--5--5--5--|
B|-7--7--7--7--7--7--7--7--|-7--7--7--7--7--7--7--7--|-7--7--7--7--7--7--7--7--|-5--5--5--5--5--5--5--5--|
G|-7--7--7--7--7--7--7--7--|-7--7--7--7--7--7--7--7--|-7--7--7--7--7--7--7--7--|-6--6--6--6--6--6--6--6--|
D|-9--9--9--9--9--9--9--9--|-9--9--9--9--9--9--9--9--|-9--9--9--9--9--9--9--9--|-7--7--7--7--7--7--7--7--|
A|-10-10-10-10-10-10-10-10-|-10-10-10-10-10-10-10-10-|-9--9--9--9--9--9--9--9--|-7--7--7--7--7--7--7--7--|
E|-------------------------|-------------------------|-7--7--7--7--7--7--7--7--|-5--5--5--5--5--5--5--5--|
Guitar 2
e|-------------------------|-------------------------|-------------------------|-------------------------|
B|-------------------------|-------------------------|-------------------------|-------------------------|
G|-------------------------|-------------------------|-------------------------|-------------------------|
D|-------------------------|-------------------------|-------------------------|-------------------------|
A|-9--7-----------------7--|-9--7--------------10-9--|-------------------9--7--|----------9-----7--------|
E|-------10-7-----7--10----|-------10-7--------------|-------------------------|-------------------10----|
 
Guitar 1
e|-7--7--7--7--7--7--7--7--|-7--7--7--7--7--7--7--7--|-7--7--7--7--7--7--7--7--|-5--5--5--5--5--5--5--5--|
B|-7--7--7--7--7--7--7--7--|-7--7--7--7--7--7--7--7--|-7--7--7--7--7--7--7--7--|-5--5--5--5--5--5--5--5--|
G|-7--7--7--7--7--7--7--7--|-7--7--7--7--7--7--7--7--|-7--7--7--7--7--7--7--7--|-6--6--6--6--6--6--6--6--|
D|-9--9--9--9--9--9--9--9--|-9--9--9--9--9--9--9--9--|-9--9--9--9--9--9--9--9--|-7--7--7--7--7--7--7--7--|
A|-10-10-10-10-10-10-10-10-|-10-10-10-10-10-10-10-10-|-9--9--9--9--9--9--9--9--|-7--7--7--7--7--7--7--7--|
E|-------------------------|-------------------------|-7--7--7--7--7--7--7--7--|-5--5--5--5--5--5--5--5--|
Guitar 2
e|-------------------------|-------------------------|-------------------------|-------------------------|
B|-------------------------|-------------------------|-------------------------|-------------------------|
G|-------------------------|-------------------------|-------------------------|-------------------------|
D|-------------------------|-------------------------|-------------------------|-------------------------|
A|-9--7-----------------7--|-9--7--------------10-9--|-------------------9--7--|-------------------------|
E|-------10-7-----7--10----|-------10-7--------------|-------------------------|-------------------------|
 
 
[Bridge]
 
Guitar 1
e|-------------------------|-------------------------|-------------------------|-------------------------|
B|--------7h8p7------7-----|--------7h8p7------7-----|--------7h8p7------7-----|--------7h8p7------7-----|
G|----7----------10-----7--|----7----------10-----7--|----7----------10-----7--|----7----------10-----7--| x4
D|-9-----------------------|-9-----------------------|-9-----------------------|-9-----------------------|
A|-------------------------|-------------------------|-------------------------|-------------------------|
E|-------------------------|-------------------------|-------------------------|-------------------------|
 
 
[Chorus 3]
 
Guitar 1
e|-7--7--7--7--7--7--7--7--|-7--7--7--7--7--7--7--7--|-7--7--7--7--7--7--7--7--|-5--5--5--5--5--5--5--5--|
B|-7--7--7--7--7--7--7--7--|-7--7--7--7--7--7--7--7--|-7--7--7--7--7--7--7--7--|-5--5--5--5--5--5--5--5--|
G|-7--7--7--7--7--7--7--7--|-7--7--7--7--7--7--7--7--|-7--7--7--7--7--7--7--7--|-6--6--6--6--6--6--6--6--|
D|-9--9--9--9--9--9--9--9--|-9--9--9--9--9--9--9--9--|-9--9--9--9--9--9--9--9--|-7--7--7--7--7--7--7--7--|
A|-10-10-10-10-10-10-10-10-|-10-10-10-10-10-10-10-10-|-9--9--9--9--9--9--9--9--|-7--7--7--7--7--7--7--7--|
E|-------------------------|-------------------------|-7--7--7--7--7--7--7--7--|-5--5--5--5--5--5--5--5--|
Guitar 2
e|-------------------------|-------------------------|-------------------------|-------------------------|
B|-7-----------------------|-7-----------------8--7--|-------------------7-----|-------------------------|
G|----9--7-----------7--9--|----9--7-----------------|----------------------9--|-------------------------|
D|----------9-----9--------|----------9--------------|-------------------------|-------------------------|
A|-------------------------|-------------------------|-------------------------|-------------------------|
E|-------------------------|-------------------------|-------------------------|-------------------------|
 
Guitar 1
e|-7--7--7--7--7--7--7--7--|-7--7--7--7--7--7--7--7--|-7--7--7--7--7--7--7--7--|-5--5--5--5--5--5--5--5--|
B|-7--7--7--7--7--7--7--7--|-7--7--7--7--7--7--7--7--|-7--7--7--7--7--7--7--7--|-5--5--5--5--5--5--5--5--|
G|-7--7--7--7--7--7--7--7--|-7--7--7--7--7--7--7--7--|-7--7--7--7--7--7--7--7--|-6--6--6--6--6--6--6--6--|
D|-9--9--9--9--9--9--9--9--|-9--9--9--9--9--9--9--9--|-9--9--9--9--9--9--9--9--|-7--7--7--7--7--7--7--7--|
A|-10-10-10-10-10-10-10-10-|-10-10-10-10-10-10-10-10-|-9--9--9--9--9--9--9--9--|-7--7--7--7--7--7--7--7--|
E|-------------------------|-------------------------|-7--7--7--7--7--7--7--7--|-5--5--5--5--5--5--5--5--|
Guitar 2
e|-------------------------|-------------------------|-------------------------|-------------------------|
B|-7-----------------------|-7-----------------8--7--|-------------------7-----|----------------7--------|
G|----9--7-----------7--9--|----9--7-----------------|----------------------9--|-----------7h9-----9--7--|
D|----------9-----9--------|----------9--------------|-------------------------|-------------------------|
A|-------------------------|-------------------------|-------------------------|-------------------------|
E|-------------------------|-------------------------|-------------------------|-------------------------|
 
Guitar 1
e|-7--7--7--7--7--7--7--7--|-7--7--7--7--7--7--7--7--|-7--7--7--7--7--7--7--7--|-5--5--5--5--5--5--5--5--|
B|-7--7--7--7--7--7--7--7--|-7--7--7--7--7--7--7--7--|-7--7--7--7--7--7--7--7--|-5--5--5--5--5--5--5--5--|
G|-7--7--7--7--7--7--7--7--|-7--7--7--7--7--7--7--7--|-7--7--7--7--7--7--7--7--|-6--6--6--6--6--6--6--6--|
D|-9--9--9--9--9--9--9--9--|-9--9--9--9--9--9--9--9--|-9--9--9--9--9--9--9--9--|-7--7--7--7--7--7--7--7--|
A|-10-10-10-10-10-10-10-10-|-10-10-10-10-10-10-10-10-|-9--9--9--9--9--9--9--9--|-7--7--7--7--7--7--7--7--|
E|-------------------------|-------------------------|-7--7--7--7--7--7--7--7--|-5--5--5--5--5--5--5--5--|
Guitar 2
e|-------------------------|-------------------------|-------------------------|-------------------------|
B|-7-----------------------|-7-----------------8--7--|-------------------7-----|-------------------------|
G|----9--7-----------7--9--|----9--7-----------------|----------------------9--|-------------------------|
D|----------9-----9--------|----------9--------------|-------------------------|-------------------------|
A|-------------------------|-------------------------|-------------------------|-------------------------|
E|-------------------------|-------------------------|-------------------------|-------------------------|
 
Guitar 1
e|-7--7--7--7--7--7--7--7--|-7--7--7--7--7--7--7--7--|-7--7--7--7--7--7--7--7--|-5--5--5--5--5--5--5--5--|
B|-7--7--7--7--7--7--7--7--|-7--7--7--7--7--7--7--7--|-7--7--7--7--7--7--7--7--|-5--5--5--5--5--5--5--5--|
G|-7--7--7--7--7--7--7--7--|-7--7--7--7--7--7--7--7--|-7--7--7--7--7--7--7--7--|-6--6--6--6--6--6--6--6--|
D|-9--9--9--9--9--9--9--9--|-9--9--9--9--9--9--9--9--|-9--9--9--9--9--9--9--9--|-7--7--7--7--7--7--7--7--|
A|-10-10-10-10-10-10-10-10-|-10-10-10-10-10-10-10-10-|-9--9--9--9--9--9--9--9--|-7--7--7--7--7--7--7--7--|
E|-------------------------|-------------------------|-7--7--7--7--7--7--7--7--|-5--5--5--5--5--5--5--5--|
Guitar 2
e|-------------------------|-------------------------|-------------------------|-------------------------|
B|-7-----------------------|-7-----------------8--7--|-------------------7-----|-------------------------|
G|----9--7-----------7--9--|----9--7-----------------|----------------------9--|-------------------------|
D|----------9-----9--------|----------9--------------|-------------------------|-------------------------|
A|-------------------------|-------------------------|-------------------------|-------------------------|
E|-------------------------|-------------------------|-------------------------|-------------------------|
 
 
[Outro]
 
Guitar 1
e|-7--7--7--7--7--7--7--7--|-7--7--7--7--7--7--7--7--|-7--7--7--7--7--7--7--7--|-5--5--5--5--5--5--5--5--|
B|-7--7--7--7--7--7--7--7--|-7--7--7--7--7--7--7--7--|-7--7--7--7--7--7--7--7--|-5--5--5--5--5--5--5--5--|
G|-7--7--7--7--7--7--7--7--|-7--7--7--7--7--7--7--7--|-7--7--7--7--7--7--7--7--|-6--6--6--6--6--6--6--6--| x4
D|-9--9--9--9--9--9--9--9--|-9--9--9--9--9--9--9--9--|-9--9--9--9--9--9--9--9--|-7--7--7--7--7--7--7--7--|
A|-10-10-10-10-10-10-10-10-|-10-10-10-10-10-10-10-10-|-9--9--9--9--9--9--9--9--|-7--7--7--7--7--7--7--7--|
E|-------------------------|-------------------------|-7--7--7--7--7--7--7--7--|-5--5--5--5--5--5--5--5--|
Guitar 2
e|-------------------------|----------------------7--|-------------------------|----------------------7--|
B|--------7h8p7------7-----|--------7h8p7------7-----|--------7h8p7------7-----|--------7h8p7------7-----|
G|----7----------10-----7--|----7----------10--------|----7----------10-----7--|----7----------10--------| x4
D|-9-----------------------|-9-----------------------|-9-----------------------|-9-----------------------|
A|-------------------------|-------------------------|-------------------------|-------------------------|
E|-------------------------|-------------------------|-------------------------|-------------------------|
 
 
************************************
 
|(n) Ghost note
| h   Hammer-on
| p   Pull-off
| r   Release
| ~   Let ring
 
************************************


Login to Edit
Edit
YouTube
Video
View Sheet Music
Sheet
Music
Print
Speed:
Play Intro (login for the full song)
Play
Intro
Sustain:
Download midi (intro) ...

 Rate:
5 star
4 star
3 star
2 star
1 star
 

Comments (0)
 

No comments yet...

Comment on this tab   -   Unhelpful comments are exterminated.
  Your Guest Name:
      [Member Login]
  Comments:
 

Don't understand the tab?
See "How to Read Guitar Tabs".
Supported tags:
<i>italics</i>
<b>bold</b>
<u>underline</u>
<tab>tab lines</tab>
  Are you a spam robot?

If not, solve the equation:




[3893 TabNabbers online]
©2021 TabNabber.com - Musician Supported Contact us Advertising Merchandise Privacy Policy Terms of Use facebook Twitter