TabNabber Tabs   Musician Supported
  Music Tabs
Espa˝ol English
Franšais Русский
Artist: # A B C D E F G H I J K L M N O P Q R S T U V W X Y Z
guitar

Guitar Tab, Chords



(0 from 0 votes)
168 Views, Last Update 13 days ago new
by: Anonymous
guest
[Guest]
E|-------------------------|  
B|-------------------------|  
G|-------------------------|  
D|--4--------5--4----------|  
A|--4--------5--4----------|  
E|--4--------5--4----------|  
 
E|---------------------------------------|
B|---------------------------------------|
G|---------------------------------------|
D|----4----------12----------9--------4--|
A|----4----------12----------9--------4--|
E|----4----------12----------9--------4--|

E|--14--14--14--17--16--15--14--14--------14--14--14--12--15--15--14--14-|
B|-----------------------------------------------------------------------|
G|-----------------------------------------------------------------------|
D|-----------------------------------------------------------------------|
A|-----------------------------------------------------------------------|
E|-----------------------------------------------------------------------|
 
E|-------------14-14-14-17-16-15-14-14---------------------------------------14-14-14-12-15-15-14-14--9/14-14-9/14-141414|
B|-----------------------------------------------------------------------------------------------------------------------|
G|-----------------------------------------------------------------------------------------------------------------------|
D|-----------------------------------------4-4-4-4-4-4-4-----------------------------------------------------------------|
A|-----------------------------------------4-4-4-4-4-4-4-----------------------------------------------------------------|
E|-----------------------------------------4-4-4-4-4-4-4-----------------------------------------------------------------|
 
E|-------14--14-13-10h12p10-9---9-9h10p9-7-7h9p7-5-7-4-5-2-2-2-2-222222---|
B|-7--7-----------------------7-------------------------------------------|
G|------------------------------------------------------------------------|
D|------------------------------------------------------------------------|
A|------------------------------------------------------------------------|
E|------------------------------------------------------------------------|
 
 
E|-------------14-14-14-17-16-15-14-14---------------------------------------14-14-14-12-15-15-14-14--9/14-14-9/14-141414|
B|-----------------------------------------------------------------------------------------------------------------------|
G|-----------------------------------------------------------------------------------------------------------------------|
D|-----------------------------------------4-4-4-4-4-4-4-----------------------------------------------------------------|
A|-----------------------------------------4-4-4-4-4-4-4-----------------------------------------------------------------|
E|-----------------------------------------4-4-4-4-4-4-4-----------------------------------------------------------------|

E|-------------------------|
B|-------------------------|
G|-------------------------|
D|--4--------5--4----------|
A|--4--------5--4----------|
E|--4--------5--4----------|  
 

E|-------------------------|
B|-------------------------|
G|-------------------------|
D|--4--------5--4----------|
A|--4--------5--4----------|
E|--4--------5--4----------| 
 
E|-------14--14-13-10h12p10-9---9-9h10p9-7-7h9p7-5-7-4-5-2-2-2-2----------|
B|-7--7-----------------------7-------------------------------------------|
G|------------------------------------------------------------------------|
D|------------------------------------------------------------------------|
A|------------------------------------------------------------------------|
E|------------------------------------------------------------------------|

E|---|
B|---|
G|---|
D|-4-|
A|-4-|
E|-4-|


Login to Edit
Edit
YouTube
Video
View Sheet Music
Sheet
Music
Print
Speed:
Play Intro (login for the full song)
Play
Intro
Sustain:
Download midi (intro) ...

 Rate:
5 star
4 star
3 star
2 star
1 star
 

Comments (0)
 

No comments yet...

Comment on this tab   -   Unhelpful comments are exterminated.
  Your Guest Name:
      [Member Login]
  Comments:
 

Don't understand the tab?
See "How to Read Guitar Tabs".
Supported tags:
<i>italics</i>
<b>bold</b>
<u>underline</u>
<tab>tab lines</tab>
  Are you a spam robot?

If not, solve the equation:




[5373 TabNabbers online]
©2021 TabNabber.com - Musician Supported Contact us Advertising Merchandise Privacy Policy Terms of Use facebook Twitter