TabNabber Tabs   Musician Supported
  Music Tabs
Espa˝ol English
Franšais Русский
Artist: # A B C D E F G H I J K L M N O P Q R S T U V W X Y Z
guitar

Guitar Tab, Chords



(0 from 0 votes)
207 Views, Last Update 1 month ago
by: sunshine
guest
[Guest]
[INTRO A]
D#|----------------------------------|----------------------------------|------------------------|
A#|----------------------------------|----------------------------------|-14-12--14-12--12h14-12-|
F#|-14----------14--11---------------|-14----------14--11---------------|-0--0---0--0---0-----0--|
C#|-0-------0---0---0-------0------0-|-0-------0---0---0-------0--0-0-0-|-0--0---0--0---0-----0--|
G#|-0-----------0---0----------------|-0-----------0---0----------0-0-0-|-0--0---0--0---0-----0--|
C#|-0---0-0---0-0-0-0---0-0----0-0---|-0---0-0--0--0-0-0---0-0----0-0-0-|-0--0-0-0--0-0-0-----0--|
 
D#|----------------------------------|-----------------------------------|------------------------|
A#|----------------------------------|-----------------------------------|-14-12--14-12--12h14-12-|
F#|-14----------14--11---------------|-14-----------14--11---------------|-0--0---0--0---0-----0--|
C#|-0-------0---0---0-------0------0-|-0-------0----0---0--0-0-0-0-0-0-0-|-0--0---0--0---0-----0--|
G#|-0-----------0---0----------------|-0------------0---0--0-0-0-0-0-0-0-|-0--0---0--0---0-----0--|
C#|-0---0-0--0--0---0---0-0----0-0---|-0---0-0---0--0---0--0-0-0-0-0-0-0-|-0--0-0-0--0-0-0-----0--|
 
[INTRO B]
D#|-----------------------------------------------------------|
A#|-----------------------------------------------------------|
F#|-14-11-------------11--------------------------------------|
C#|-0-----14-12-12h14----14p12----------12---------12---14-12-|
G#|-0--------------------------14-12h14------12h14------------|
C#|-0--------------------------0-----------0----------0-------|
 
D#|-----------------------------------------------------------|
A#|-----------------------------------------------------------|
F#|-14-11-------------11--------------------------------------|
C#|-0-----14-12-12h14----14p12----------12---------12---12----|
G#|-0--------------------------14-12h14------12h14------------|
C#|-0-----------------------------0--------0----------0----0--|
 
[INTRO C]
D#|---------------------------------|-----------------------------------|
A#|-14-14-14-14-xx-12-12-12-1212-xx-|-14-14-14-1414-xx-12-12-12-1212-xx-|
F#|-x--x--x--x--xx-x--x--x--x-x--xx-|-x--x--x--x-x--xx-x--x--x--x-x--xx-|
C#|-0--0--0--0--00-0--0--0--0-0--00-|-0--0--0--0-0--00-0--0--0--0-0--00-|
G#|-0--0--0--0--00-0--0--0--0-0--00-|-0--0--0--0-0--00-0--0--0--0-0--00-|
C#|-0--0--0--0--00-0--0--0--0-0--00-|-0--0--0--0-0--00-0--0--0--0-0--00-|
 
D#|-14-14-14-1414-xx-14-14-14-1414-xx-|-14-14-14-1414-xx-14-14-14-14-14-14-14-14-|
A#|-14-14-14-1414-xx-12-12-12-1212-xx-|-14-14-14-1414-xx-12-12-12-12-12-12-12-12-|
F#|-x--x--x--x-x--xx-x--x--x--x-x--xx-|-x--x--x--x-x--xx-x--x--x--x--x--x--x--x--|
C#|-0--0--0--0-0--00-0--0--0--0-0--00-|-0--0--0--0-0--00-0--0--0--0--0--0--0--0--|
G#|-0--0--0--0-0--00-0--0--0--0-0--00-|-0--0--0--0-0--00-0--0--0--0--0--0--0--0--|
C#|-0--0--0--0-0--00-0--0--0--0-0--00-|-0--0--0--0-0--00-0--0--0--0--0--0--0--0--|
 
[INTRO D]
D#|----------------------------------|-----------------------------------|------------------------|
A#|----------------------------------|-----------------------------------|-14-12--14-12--12h14-12-|
F#|-14----------14--11---------------|-14-----------14--11---------------|-0--0---0--0---0-----0--|
C#|-0-------0---0---0-------0------0-|-0-------0----0---0-------0------0-|-0--0---0--0---0-----0--|
G#|-0-----------0---0----------------|-0------------0---0----------------|-0--0---0--0---0-----0--|
C#|-0---0-0---0-0-0-0---0-0----0-0---|-0---0-0---0--0-0-0---0-0----0-0---|-0--0-0-0--0-0-0-----0--|
 
D#|-----------------------------------------------------------|
A#|-----------------------------------------------------------|
F#|-14-11-------------11--------------------------------------|
C#|-0-----14-12-12h14----14p12----------12---------12---14-12-|
G#|-0--------------------------14-12h14------12h14------------|
C#|-0--------------------------0-----------0----------0-------|
 
D#|-----------------------------------------------------------|
A#|-----------------------------------------------------------|
F#|-14-11-------------11--------------------------------------|
C#|-0-----14-12-12h14----14p12----------12---------12---------|
G#|-0--------------------------14-12h14------12h14------------|
C#|-0--------------------------0------------------------------|
 
 
[VERSE/CHORUS/etc/OUTRO]
D#|-----------------------------------------|
A#|-----------------------------------------|
F#|-----------------------------------------| x2 (intro)
C#|-----------------------------------------| x4 (verse)
G#|-----------------------------------------| x4 (chorus)
C#|-0000-0000-0000-0000-5555-5555-5555-5555-| repeat until end
 
   (comes in after 1st chorus)
D#|-----------------------------------------|
A#|-----------------------------------------|
F#|-----------------------------------------| x2 (intro)
C#|-----------------------------------------| x4 (verse)
G#|-9999-9999-2222-2222-7777-7777-5555-5577-| x4 (chorus)
C#|-----------------------------------------| repeat until end
 
   (starts after 2nd chorus)
D#|-----------------------------------------|
A#|-----------------------------------------|
F#|-----------------------------------------|
C#|-----------------------------------------| x2 (transition)
G#|-9999-9999-2222-2222-7777-7777-5555-5577-|
C#|-0000-0000-0000-0000-5555-5555-5555-5555-| repeat until end
 
   (comes in after transition)
D#|--------------------------------------|
A#|-77777777-77777777--55555555-55555555-|
F#|-77777777-77777777--77777777-77777777-|
C#|-77777777-77777777--77777777-77777777-|
G#|--------------------------------------|
C#|--------------------------------------| repeat until end


Login to Edit
Edit
YouTube
Video
View Sheet Music
Sheet
Music
Print
Speed:
Play Intro (login for the full song)
Play
Intro
Sustain:
Download midi (intro) ...

 Rate:
5 star
4 star
3 star
2 star
1 star
 

Comments (0)
 

No comments yet...

Comment on this tab   -   Unhelpful comments are exterminated.
  Your Guest Name:
      [Member Login]
  Comments:
 

Don't understand the tab?
See "How to Read Guitar Tabs".
Supported tags:
<i>italics</i>
<b>bold</b>
<u>underline</u>
<tab>tab lines</tab>
  Are you a spam robot?

If not, solve the equation:




[71900 TabNabbers online]
©2021 TabNabber.com - Musician Supported Contact us Advertising Merchandise Privacy Policy Terms of Use facebook Twitter