TabNabber Tabs   Musician Supported
  Music Tabs
Espa˝ol English
Franšais Русский
Artist: # A B C D E F G H I J K L M N O P Q R S T U V W X Y Z
bass

Bass Guitar Tab, Chords



(0 from 0 votes)
369 Views, Last Update 1 month ago
by: Juan Perez
guest
[Guest]
Gb|------11----11-12--14-16-14/12-11-------|----12-----10-9----10-9-----|
Db|----12----12----------------------12-0--|-10-----10------10-----10-0-|
Ab|--12------------------------------------|----------------------------|
Eb|----------------------------------------|----------------------------|

 
Gb|-----------12-----11h12-11----12-11----|-------|
Db|-------/12----12-----------12-------12-|-------|
Ab|--10-----------------------------------|---12\-|
Eb|---------------------------------------|-------|


Login to Edit
Edit
YouTube
Video
View Sheet Music
Sheet
Music
Print
Speed:
Play Intro (login for the full song)
Play
Intro
Sustain:
Download midi (intro) ...

 Rate:
5 star
4 star
3 star
2 star
1 star
 

Comments (0)
 

No comments yet...

Comment on this tab   -   Unhelpful comments are exterminated.
  Your Guest Name:
      [Member Login]
  Comments:
 

Don't understand the tab?
See "How to Read Guitar Tabs".
Supported tags:
<i>italics</i>
<b>bold</b>
<u>underline</u>
<tab>tab lines</tab>
  Are you a spam robot?

If not, solve the equation:




[67398 TabNabbers online]
©2021 TabNabber.com - Musician Supported Contact us Advertising Merchandise Privacy Policy Terms of Use facebook Twitter