TabNabber Tabs   Musician Supported
  Music Tabs
Espa˝ol English
Franšais Русский
Artist: # A B C D E F G H I J K L M N O P Q R S T U V W X Y Z
guitar

Guitar Tab, Chords



(0 from 0 votes)
231 Views, Last Update 18 days ago new
by: Anonymous
guest
[Guest]
[Intro]
e|---0-0----0-0-|----0-0----------|---0-0-----------0-0-0-|----0-0-----------|
B|---3-3----3-3-|----3-3----------|---3-3-3-3-----3-3-3---|----3-3-----------|
G|---2-2----2-2-|----2-2----------|---2-2-2-------2-2-2---|----2-2-----------|
D|---4-4----4---|----4-4---4----4-|---4-4-4-------4-4-----|----4-4---4----4--|
A|---0----0-----|----0---0---0h2--|---0-0-------0---0-----|----0---0---0h2---|
D|-0------------|-0---------------|-0---------------------|-0----------------|
 
[Verse 1]
e|---0-0----0-0-|----0-0----------|------0-0-|---0-0---0-0-|-------------------0--|
B|---3-3----3-3-|----3-3----2-3-5-|-7-0--0-0-|---0-0---0-0-|--------------------0-|
G|---2-2----2-2-|----2-2----------|------2-2-|---2-2---2-2-|---------6--------6---|
D|---4-4----4---|----4-4----------|------4-4-|---4-4---0-2-|---------7-------0----|
A|---0----0-----|----0----0-------|------4---|---4-----4---|---------7------------|
D|-0------------|-0---------------|-4----4---|-4-4---4-4---|---------7-----4------|
I woke up it was saturday                        grey in the sky
                                                              there's nothing more to
 
e|---0-0----0-0-|----0-0----------|
B|---3-3----3-3-|----3-3----------|
G|---2-2----2-2-|----2-2----------|
D|---4-4----4---|----4-4---4----4-|
A|---0----0-----|----0---0---0h2--|
D|-0------------|-0---------------|
  say on that
 
[Verse 2]
 
e|---0-0----0-0-|----0-0----------|------0-0-|---0-0---0-0-|-------------------------------|
B|---3-3----3-3-|----3-3----2-3-5-|-7-0--0-0-|---0-0---0-0-|-------------------------------|
G|---2-2----2-2-|----2-2----------|------2-2-|---2-2---2-2-|---------6---------------------|
D|---4-4----4---|----4-4----------|------4-4-|---4-4---0-2-|---------7---------------------|
A|---0----0-----|----0----0-------|------4---|---4-----4---|---------7---------------------|
D|-0------------|-0---------------|-4----4---|-4-4---4-4---|---------7-----------------0---|
   I got up got out of my bed               stretched my arms wide
                                                                it's time to let this fall from me
 
[Pre Chorus]
 
e|------------|           e|------------|
B|------------|           B|------------|
G|------------|           G|------------|
D|-------7----|  x8       D|-7h9--------| x8
A|-5h7--------|           A|-------9----|
D|-----0------|           D|-----0------|
 
e|------------|           e|------------|
B|------------|           B|------------|
G|------------|           G|------------|
D|-------7----|  x8       D|-7h9--------| x8
A|-5h7--------|           A|-------9----|
D|-----0------|           D|-----0------|
                         it's time to let it fall
 
[Interlude]
(these are strummed, listen to the song for timing)
e|-(0)-------(0)----------|
B|-(0)-------(0)----------|
G|-(0)-------(0)----------|         x2
D|--7---------7h9---------|
A|--5h7-------9-----------|
D|--0---------0-----------|
 
   (pm)   (not pm)
e|--9-------9---|-0---------9----p0--------|--5----|
B|--10------9---|-0----10------10----10----|--5----|
G|--11------11--|-11------11------------11-|--7----|
D|--12------12--|-12-----------------------|--8----|
A|--9-------9---|-0------------------------|--5----|
E|--9-------9---|-0------------------------|--5----|
 
 
[Chorus]
e|-9---------|-0---------9----p0--------|--0----|
B|-9---------|-0----10------10----10----|--12---|
G|-11--------|-11------11------------11-|--0----|
D|-12--------|-12-----------------------|--11---|
A|-9---------|-0------------------------|--12---|
E|-9---------|-0------------------------|--11---|
move through & just as soon              my clothes are catchin on
 
e|--9-------9---|-0---------9----p0--------|--5----|
B|--10------9---|-0----10------10----10----|--5----|
G|--11------11--|-11------11------------11-|--7----|
D|--12------12--|-12-----------------------|--8----|
A|--9-------9---|-0------------------------|--5----|
E|--9-------9---|-0------------------------|--5----|
  my eyes closed lost in my room               I move through
 
e|--0----|--------0-------------0---|--------------0------------------------------0---0----x-----------------|
B|--0----|--------0-------------0---|--------------5------------------------------0---0----x-----------------|
G|--6----|--------7-------------6---|--------------0------------------------------6---6----x-----------------|
D|--7----|--------9-------------7---|--------------4------------------------------7---7----x-----------------|
A|--7----|--------9-------------7---|--------------5------------------------------5---5----x-----------------|
E|--7----|--------9-------------7---|--------------4------------------------------5---5----x-----------------|
 & just assume my clothes are             but I'm bringing them with me bringing them with me
                       catchin on thorns
 
 
e|------------|           e|------------|
B|------------|           B|------------|
G|------------|           G|------------|
D|-------7----|  x8       D|-7h9--------| x8
A|-5h7--------|           A|-------9----|
D|-----0------|           D|-----0------|
                              call me on sunday
 
e|------------|           e|------------|
B|------------|           B|------------|
G|------------|           G|------------|
D|-------7----|  x8       D|-7h9--------| x8
A|-5h7--------|           A|-------9----|
D|-----0------|           D|-----0------|
                             call me, caaaaaaaaaaaaall
 
e|-(0)-------(0)----------|
B|-(0)-------(0)----------|
G|-(0)-------(0)----------|
D|--7---------7h9---------|
A|--5h7-------9-----------|
D|--0---------0-----------|
 meeeeeeeeeeeeeee call me on sunday
 
e|-(0)-------(0)----------|
B|-(0)-------(0)----------|
G|-(0)-------(0)----------|
D|--7---------7h9---------|
A|--5h7-------9-----------|
D|--0---------0-----------|
 
[Interlude]
e|--9-------9---|-0---------9----p0--------|--5----|
B|--10------9---|-0----10------10----10----|--5----|
G|--11------11--|-11------11------------11-|--7----|
D|--12------12--|-12-----------------------|--8----| x2
A|--9-------9---|-0------------------------|--5----|
D|--9-------9---|-0------------------------|--5----|
 
 
[Chorus]
e|-9---------|-0---------9-----p0-------|--0----|
B|-9---------|-0----10------10----10----|--12---|
G|-11--------|-11------11------------11-|--0----|
D|-12--------|-12-----------------------|--11---|
A|-9---------|-0------------------------|--12---|
D|-9---------|-0------------------------|--11---|
move through & just as soon                 my clothes are catchin on
 
e|--9-------9---|-0---------9----r0--------|--5----|
B|--10------9---|-0----10------10----10----|--5----|
G|--11------11--|-11------11------------11-|--7----|
D|--12------12--|-12-----------------------|--8----|
A|--9-------9---|-0------------------------|--5----|
D|--9-------9---|-0------------------------|--5----|
   I'll come through, I always do             when I'm moving
 
e|--0----|--------0-------------0---|--------------2--------------------------------0---0--------------------|
B|--0----|--------0-------------0---|--------------3--------------------------------0---0--------------------|
G|--6----|--------7-------------6---|--------------2--------------------------------6---6--------------------|
D|--7----|--------9-------------7---|--------------0--------------------------------7---7--------------------|
A|--7----|--------9-------------7---|--------------5--------------------------------5---5--------------------|
D|--7----|--------9-------------7---|--------------4--------------------------------5---5--------------------|
 I just assume my clothes are             but I'm bringing them with me, bringing them with me
                       catchin on thorns
 
[Outro]
e|-------(0)--0---0-0-|-0--0---0--|-0----0---------2------------------|
B|-------(12)-0---0-0-|-0--12--10-|-0----0---------3------------------|
G|-------(0)--2---6-6-|-7--0---11-|-7----6---------2------------------|
D|--------11--4---7-7-|-9--11--12-|-9----7---------0------------------|
A|--------12--4---7-7-|-9--12--12-|-9----7---------5------------------|
D|--0-----11--4---7-7-|-9--11--12-|-9----7---------4------------------|
    da da da  aaaaa I   never kept good touch but it's all right you never
 
e|---0--0---------------|-0--|--0-----|
B|---0--0---------------|-0--|--0-----|
G|---6--6---------------|-0--|--6-----|
D|---7--7-------0--2--0-|-5--|--7-----|
A|---5--5-------0--2--5-|-5--|--7-----|
E|---5--5-------0--2--4-|-5--|--7-----|
  expected much da da da aaaaaaaaaaaa
 
e|---0-0----0-0-|----0-0------------|
B|---3-3----3-3-|----3-3------------|
G|---2-2----2-2-|----2-2------------|
D|---4-4----4---|----4-4---4----4---|      x2
A|---0----0-----|----0---0---0h2----|
D|---0----------|-0-----------------|


Login to Edit
Edit
YouTube
Video
View Sheet Music
Sheet
Music
Print
Speed:
Play Intro (login for the full song)
Play
Intro
Sustain:
Download midi (intro) ...

 Rate:
5 star
4 star
3 star
2 star
1 star
 

Comments (0)
 

No comments yet...

Comment on this tab   -   Unhelpful comments are exterminated.
  Your Guest Name:
      [Member Login]
  Comments:
 

Don't understand the tab?
See "How to Read Guitar Tabs".
Supported tags:
<i>italics</i>
<b>bold</b>
<u>underline</u>
<tab>tab lines</tab>
  Are you a spam robot?

If not, solve the equation:




[68804 TabNabbers online]
©2021 TabNabber.com - Musician Supported Contact us Advertising Merchandise Privacy Policy Terms of Use facebook Twitter