TabNabber Tabs   Musician Supported
  Music Tabs
Espa˝ol English
Franšais Русский
Artist: # A B C D E F G H I J K L M N O P Q R S T U V W X Y Z
electric guitar

Guitar Tab, Chords



(0 from 0 votes)
255 Views, Last Update 21 days ago new updated
by: Sabernot


Pro Tabber
[Pro Tabber]
e|------------------------------------|--------------------------------------|--------------------------------|--------------------------------------|
b|------------------------------------|--------------------------------------|--------------------------------|--------------------------------------|
g|------------------------------------|--------------------------------------|--------------------------------|--------------------------------------|
d|------------------------------------|----------------------5---------------|--------------------------------|----------------------5-------5-------|
a|7---7---7-5-------5---5---5-3-------|3---3---3-2-------5-------5---7-------|7---7-5-------5---5---5-3-------|3---3---3-2-------5-------5-----------|
e|--------------7-----------------5---|--------------3-----------------------|----------7-----------------5---|--------------3-----------------------|

e|--------------------------------|--------------------------------------|
b|--------------------------------|--------------------------------------|
g|--------------------------------|----------------------4---------------|
d|5---5-4-------4---4---4-2-------|2---2---2-0-------4-------4---5-------|
a|----------5-----------------3---|--------------2-----------------------|
e|--------------------------------|--------------------------------------| X2

e|------------------7---------------------|--------------------------------|
b|8---7h8p7h8p7h8-------8---7h8p7h8p7h8---|8---------------8---------------|
g|----------------------------------------|----9---9---7-------7---9-------|
d|----------------------------------------|--------------------------------|
a|----------------------------------------|--------------------------------|
e|----------------------------------------|--------------------------------| X8


Login to Edit
Edit
YouTube
Video
View Sheet Music
Sheet
Music
Print
Speed:
Play Intro (login for the full song)
Play
Intro
Sustain:
Download midi (intro) ...

 Rate:
5 star
4 star
3 star
2 star
1 star
 

Comments (0)
 

No comments yet...

Comment on this tab   -   Unhelpful comments are exterminated.
  Your Guest Name:
      [Member Login]
  Comments:
 

Don't understand the tab?
See "How to Read Guitar Tabs".
Supported tags:
<i>italics</i>
<b>bold</b>
<u>underline</u>
<tab>tab lines</tab>
  Are you a spam robot?

If not, solve the equation:




[35527 TabNabbers online]


©2021 TabNabber.com - Musician Supported Contact us Advertising Merchandise Privacy Policy Terms of Use facebook Twitter