TabNabber Tabs   Musician Supported
  Music Tabs
Espa˝ol English
Franšais Русский
Artist: # A B C D E F G H I J K L M N O P Q R S T U V W X Y Z
guitar

Guitar Tab, Chords



(0 from 0 votes)
118 Views, Last Update 8 days ago new
by: Gman
guest
[Guest]
1  |       |       |         |       |       |         |       |       |
E|-------------------------|-------------------------|-3-----------5-3-2-0-----|
B|-0---------------3-1-0-1-|-3-----0-----------------|---------------------3-2-|
G|*------------------------|---------0---------------|-------------------------|
D|*--0---0---0---0-----0---|---0---0---0---0---0---0-|---2---2---2---------2---|
A|-----2-------2---0-------|-----2-------2-------2---|-----3-------3---4-------|
E|-3-------3---------------|-3-------3-------3-------|-3-------3---------------|

4  |       |       |         |       |       |         |       |       |
E|-------------------------|-------------------------|---------3---------------|
B|-3-----0-----------------|-----------------0---1---|-3-----0---0---0---0---0-|
G|---0-----0---------------|-5-----2-----2-----------|-------------0-------0---|
D|-----0-----0---0---0---0-|---0---0-4-----0---0---0-|---0---0---------2-------|
A|-2-----------2-------2---|-----3-----5-3---2---0---|-----2-------------------|
E|---------3-------3-------|-5-------5---------------|-3-------0---------------|

7  |       |       |         | , . , . , . , | . | .   |       |       |
E|-5-3---3-------0---------|-------------------------|-----------------------0-|
B|-----7---7-5-4---3-1-0-1-|-0-----------1-0---3-2-1-|-0-----------0-3-1---1---|
G|-------------------------|-0---------------2-------|-----------0-------2-----|
D|---------5-------2-------|-0---------------4-------|---0---0-----0-------0---|
A|-3-----------------------|-----------------5-------|-----2-----------0-------|
E|-------------------------|-------------------------|-3-------3---------------|

10 |       |       |         |       |       |         |       |       |
E|---------------------0-2-|-3-2-3-2-5-3-2-3-2-0-----|-------------------------|
B|-3-----0-------0-1-3-----|---------------------3-2-|-3-0-3-0-----------------|
G|---------0-0-2-----------|-------------------------|---------0---------------|
D|---0---0-----0-------0---|-----2-------2-------2---|-----0-----0---0---0---0-|
A|-----2-----2-------------|-3-------3-------4-------|-2-----------2-------2---|
E|-3-------3-------3-------|-------------------------|---------3-------3-------|

13 |       |       |         |       |       |         |       |       |
E|-------------------------|---------3---------7-----|---0---------------------|
B|-1---1-------------0-1-2-|-3---3-----0---0-----7-8-|-4---1-----------0-------|
G|---2---2---2-1-2-3-------|---4---4-----0-----------|-------2-0-----0---2-0-2-|
D|-----0---4---0-------0---|---------------------0---|-----2-----0---0---------|
A|-0-------3-------0-------|-----2-------------------|-3-------2---2---3-------|
E|---------------------2---|-3-------0-------7-------|-------------------------|

16 |       |       |         |       |       |         |       |       |
E|-------------------------|-----------------3-2-0---|-------------------------|
B|-------------------------|-3---------2-5-3-------3-|-2-----------------------|
G|-2-------0--------------*|*--2---2---2---------2---|---2-0-2---2-0-2---2-0-2-|
D|-4-------0--------------*|*----4---0---4---0-------|-2-------2-------2-------|
A|-3-------2---------------|-5-----------------------|-------------------------|
E|-3-------3---------------|-------------------------|-------------------------|

19 |       |       |         |       |       |        |       |       |
E|-0-----------2-0-5-3-2-0-|-------0-2---------------|2---------0-3-2-7-5--3-2-|
B|-----------4-------------|-3-----------------------|-------------------------|
G|---2---2-----2-------2---|---2---2---2---2---0---0-|-------------------------|
D|-----5-------------------|-0---4---------------0---|--4-0-4-----2---4----0---|
A|-4-------4-------4-------|---------4---5---2-------|0------------------------|
E|-------------------------|-------------------------|--------3----------------|

22 |       |       |         |       |       |         |       |       |
E|-0-----------2-0-5-3-2-0-|-0-------------2-2-------|-0-----------0---2-0-----|
B|-----------4-------------|---3-3-------3---2-5-3-5-|-2-------3-4---4-----3-1-|
G|---0---0-----------------|-----------2---------0---|-2-----------------------|
D|-----2---4---1---2-------|-----4-------4-----------|-0-------4---------------|
A|-------------------------|-0-------0-------0-------|-------------------------|
E|-3-------------------3---|-------------------------|-------------------------|

25 |       |       |         |       |       |         |       |       |
E|-----------------------0-|---------------------0-2-|-3-2-3-2-5-3-2-3-2-0-----|
B|-0-----------0-3-1---1---|-3-----0-------0-1-3-----|---------------------3-2-|
G|-----------0-------2-----|---------0-0-2-----------|-------------------------|
D|---0---0---0---------0---|---0---0---0-----0-------|-----2-------2---0-------|
A|-----2-------2---0-------|-----2-------2-----------|-3-----------------------|
E|-3-------3---------------|-3-------3-----------3---|---------3---------------|

28 |       |       |         |       |       |         |       |       |
E|-------------------------|-------------------------|---------3---------7-----|
B|-3-0-3-0-----------------|-1---1-------------0-1-2-|-3-0-3-0---0---0-----7-8-|
G|---------0---------------|---2---2---2-1-2-3-------|-------------0-----------|
D|-----------0---0---0---0-|-----0---4-------0-------|---------2---------------|
A|-----2-------2-------2---|-0-------3---------------|-----2-------------------|
E|-3-------3-------3-------|-------------------------|-3---------------7-------|

31 |       |       |         |       |       |         |       |       |
E|---0---------------------|-------------------------|-------------------------|
B|-4---1-----------0-------|-------------------------|-------------1-----------|
G|-------2-0-----0---2---2-|-2-------0--------------*|-3---------2---3-3-2-0---|
D|-----2-----0---0-----5---|-4----------------------*|---0---0-----0---0-----4-|
A|-3-------2---2---3-------|-3-------2---------------|-----1-------------------|
E|-------------------------|-3-------3---------------|-3-------3---------------|

34 |       |       |         |       |       |         |       |       |
E|-------------------------|-------------------------|---------3---------------|
B|---------3---------------|-3---------2-4-3-3-1-----|-------3-----------------|
G|-0-----3-----------------|---------------------3-2-|-3-----------------------|
D|---0---0---0---0---0---0-|---0---0---0---------0---|---0-------0---0---1---1-|
A|-----1-------1-------1---|-----0-------0-----------|-----1-------1-------1---|
E|-3-------3-------3-------|-2-------2-------2-------|-3-------3-------3-------|

37 |       |       |         |       |       |         |       |       |
E|-1---------5-8---5-3-----|-----------3-6-5-3-1-----|-------3-----------------|
B|---------------11----6-4-|-3-------------------4-3-|-0-1-4-----------3-1---1-|
G|-------------------------|-------------------------|-----0---3-----3-----3---|
D|---3---3---------3-------|---3---3---0-------------|-----------0---0---1-----|
A|-0---3---0-----------0---|-----5-----------1-------|-3-----------1-------3---|
E|-------------8-----------|-6-------3-----------1---|---------1-------1-------|

40 |       |       |         |       |       |         |       |       |
E|-------------------------|-----------4-3-----------|---------3---------------|
B|-1-----------1---3-1-4-3-|-6-------------6-4-3-----|-------4-----------1---1-|
G|-2-------3-2---3---------|-------------0-------5-4-|-5---------4---4---------|
D|-3-----------------------|---3---3-----------------|---5-----0---5-------1---|
A|-1-------1---------------|-----3-----------3-------|-6---5-----------3-------|
E|-------------------------|-4-------3---------------|-------------------------|

43 |       |       |         |       |       |         |       |       |
E|-3---------2-5-3-6---6---|-------------------------|-------------5---8---11--|
B|-------------------------|-2-------3---------------|-4-------------7---10----|
G|---3---3-----0-----6---6-|---3---3---2---2---2---2-|---2---2---5-----------11|
D|-----2---0-----------5---|-----5---0---4---0---4---|-----4-------4-----------|
A|-4---------------6-------|-4-----------------------|-3-------3-----------9---|
E|-------------------------|-------------------------|-----------------8-------|

46 |       |      |          |       |       |         |       |       |
E|-10----------------------|-------------------------|-------------------------|
B|----------10-11--8---3---|-----1-4-----------------|-------------------------|
G|---0---0-------11--6---3-|-3-2-----0-----0-3-2-0-2-|-2-------0---0-1-2-1-2-3-|
D|-----0-------0-------0---|-----1-----0-----0-------|-4---------4-------------|
A|-------------------------|-3-------5---1-----------|-3-------1---------------|
E|-6-------6-------6-------|-------------------------|-3-----------------------|

49 |       |       |         |       |       |         |       |       |
E|-------------------------|-------------------------|-3-----------5-3-2-0-----|
B|-0---------------3-1-0-1-|-3-----0-----------------|---------------------3-2-|
G|-------------------------|---------0---------------|---------------------0---|
D|---0---0---0---0---------|---0---0---0---0---0---0-|---2---2---2-----2-------|
A|-----2-------2---0---3---|-----2-------2-------2---|-----3-------3-----------|
E|-3-------3---------------|-3-------3-------3-------|-3-------3---------------|

52 |       |       |         |       |       |         |       |       |
E|-------------------------|-------------------------|---------3---------------|
B|-3-----0-----------------|-1---------------0---1---|-3-----0---0---0---------|
G|---------0---------------|-------2-----2-----------|-------------0-----0---0-|
D|---0---0---0---0---0---0-|---0---0-4-0---0---0---0-|---0---0-2-----------0---|
A|-----2-------2-------2---|-0---3---0---3---2---0---|-----2-----------2-------|
E|-3-------3-------3-------|-------------------------|-3-----------------------|

55 |       |       |         | , . , . , . , | . | .   |       |       |
E|-5-3-2-3-2-0---0---------|-------------------------|-----------------------0-|
B|-------------4---3-1-0-1-|-0-----------1-0---3-2-1-|-0-----------0-3-1---1---|
G|---------0---------------|-0---------------2-------|-----------0-------2-----|
D|-----------------2-------|-0---------------4-------|---0---0---0-----0-------|
A|-3-----------------------|-------------------------|-----2-------2-------0---|
E|-------------------------|-------------------------|-3-------3---------------|

58 |       |       |         |       |       |         |       |       |
E|---------------------0-2-|-3-2-3-2-5-3-2-3-2-0-----|-------------------------|
B|-3-----0-------0-1-3-----|---------------------3-2-|-3-0-3-0-----------------|
G|---------0-0-2-----------|-------------------------|---------0---------------|
D|---0---0---0-----0-------|-----2-------2---0-------|-----------0---0---0---0-|
A|-----2-------2-----------|-3-----------------------|-----2-------2-------2---|
E|-3-------3-----------3---|---------3---------------|-3-------3-------3-------|

61 |       |       |         |       |       |         |       |       |
E|-------------------------|---------3---------7-----|---0---------------------|
B|-1---1--------------0-1-2|-3-0-3-0---0---0-----7-8-|-4---1-----------0-------|
G|---2---2----2-1-2-3------|-------------0-----------|-------2-0-----0---2---2-|
D|-----0---4--------0------|---------2---------------|-----2-----0---0-----5---|
A|-0-------3---------------|-----2-------------------|-3-------5---2---3-------|
E|-------------------------|-3---------------7-------|-------------------------|

64 |       |       |         |       |       |         |       |       |
E|---------------------0---|-1-----------3-5-3-1-0---|---------0---------3-2-0-|
B|---------0---1-0-3-1---3-|-----------------------3-|-4-----------------------|
G|-0---2-0---2-------------|-------------------------|---0---0---0---0---------|
D|---4---------------------|---3---3---3---------0---|-----2-------2-----------|
A|-------------------------|-0---3---0---3---2-------|-3-------3-------3-------|
E|-3-----------------------|-------------------------|-------------------------|

67 |       |       |         |       |       |         |       |       |
E|-------0-----------------|---------------------0---|-1-----------3-5-3-1-0---|
B|-3-0-------------0-------|---------0---1-0-3-1---3-|-----------------------3-|
G|-----2---0-----0---2---2-|-0---2-0---2-------------|-------------------------|
D|-----------0---0-----5---|---4---------------------|---3---3---3-----0-------|
A|-2---3---2---2---3-------|-------------------------|-0---3---0---2-----------|
E|-------------------------|-3-----------------------|---------------------3---|

70 |       |       |         |   .   |   .   |   .     |       |       |
E|-0-------2-------3-------|-3-----------5323--------|-------------------------|
B|-------------------------|---0---0---0---0-0-------|-----0-0-0---3-3-3-0---0-|
G|---0---0---2---2---3---3-|-----0-------0-----0-2---|-0---------0---------2---|
D|-----2-------1-------2---|-0-------0-------0-----4-|---0-----------------0---|
A|-3-------3-------4-------|---------------------3---|-2-------------------3---|
E|-------------------------|-------------------------|-3-----------------------|

73 |       |       |         |       |       |
E|-------------------------|------------------------||
B|-----0-0-0---3-3-3-0---0-|------------------------||
G|-0---------0---------2---|-0-------0--------------||
D|---0-----------------0---|-0----------------------||
A|-2-------------------3---|-2-------2--------------||
E|-3-----------------------|---------3--------------||


Login to Edit
Edit
YouTube
Video
View Sheet Music
Sheet
Music
Print
Speed:
Play Intro (login for the full song)
Play
Intro
Sustain:
Download midi (intro) ...

 Rate:
5 star
4 star
3 star
2 star
1 star
 

Comments (0)
 

No comments yet...

Comment on this tab   -   Unhelpful comments are exterminated.
  Your Guest Name:
      [Member Login]
  Comments:
 

Don't understand the tab?
See "How to Read Guitar Tabs".
Supported tags:
<i>italics</i>
<b>bold</b>
<u>underline</u>
<tab>tab lines</tab>
  Are you a spam robot?

If not, solve the equation:




[32562 TabNabbers online]


©2021 TabNabber.com - Musician Supported Contact us Advertising Merchandise Privacy Policy Terms of Use facebook Twitter