TabNabber Tabs   Musician Supported
  Music Tabs
Espa˝ol English
Franšais Русский
guitar

Guitar Tab, Chords



(0 from 0 votes)
564 Views, Last Update 1 month ago
by: Michael Jackson
guest
[Guest]
e|-----------------|-----------------|-----------------|---------------------|
B|-----1-3-----3---|-----0-1---------|-----1-3-----3---|----------0-1-0------|
G|---------------2-|-------------4-2-|---------------2-|-4--0--2--------2----|
D|---2-2-3---3-----|---3-0-2---2-----|---2-2-3---3-----|---------2-----------|
A|-0-------0-------|-0-------0-------|-0-------0-------|-------0-------------|
E|-----------------|-----------------|-----------------|-3--0----------------|
 
e|-----------------|-----------------|-----------------|---------------------|
B|-----1-3-----3---|-----0-1-----0---|-----1-3-----3---|----------0-1-0------|
G|---------------2-|---------------2-|---------------2-|-4--0--2--------2----|
D|---2-2-3---3-----|---0-0-2---2-----|---2-2-3---0-----|---------2-----------|
A|-0-------0-------|---------0-------|-0-------2-------|-------0-------------|
E|-----------------|-3---------------|-----------------|-3--0----------------|
 
e|-----0-1-----0---|-------------0---|-----------------|---------------------|
B|---------------6-|-----3-5-------3-|-----1-3-----3---|-------1--0----------|
G|---2-0-2---2-----|---2-------2-----|---2-----------2-|-4--0----------------|
D|-----------------|-----3-5---------|-----2-3---3-----|---------------------|
A|-0-------0-------|-0-------0-------|-0-------0-------|---------------------|
E|-----------------|-----------------|-----------------|-3--0--1--3----------|
 
e|-----0-1-----0---|-------------0---|-----------------|---------------------|
B|---------------5-|-----3-5-------3-|-----1-3-----3---|----------0-1-0------|
G|---2-0-2---2-----|---2-------2-----|---2-----------2-|-4--0--2--------2----|
D|-----------------|-----3-5---------|-----2-3---3-----|---------2-----------|
A|-0-------0-------|-0-------0-------|-0-------0-------|-------0-------------|
E|-----------------|-----------------|-----------------|-3--0----------------|


Login to Edit
Edit
YouTube
Video
View Sheet Music
Sheet
Music
Print
Speed:
Play Intro (login for the full song)
Play
Intro
Sustain:
Download midi (intro) ...

 Rate:
5 star
4 star
3 star
2 star
1 star
 

Comments (0)
 

No comments yet...

Comment on this tab   -   Unhelpful comments are exterminated.
  Your Guest Name:
      [Member Login]
  Comments:
 

Don't understand the tab?
See "How to Read Guitar Tabs".
Supported tags:
<i>italics</i>
<b>bold</b>
<u>underline</u>
<tab>tab lines</tab>
  Are you a spam robot?

If not, solve the equation:




[31272 TabNabbers online]


©2021 TabNabber.com - Musician Supported Contact us Advertising Merchandise Privacy Policy Terms of Use facebook Twitter