TabNabber Tabs   Musician Supported
  Music Tabs
Espa˝ol English
Franšais Русский
guitar

Guitar Tab, Chords



(5 from 2 votes)
205 Views, Last Update 1 month ago
by: Anonymous
guest
[Guest]
|
e|---------------------------------|---------------------------------|
B|-----0---0---0-------0---0---0---|-----1-0-1---1-------1-0-1---1---|
G|-------2---------------2---------|---------------------------------|
D|---0-------0---0---0-------0---0-|---2-------2---2---2-------2---2-|
A|---------------------------------|---------------------------------|
E|-3---------------3---------------|-3---------------3---------------|
 
 

e|---------------------------------|---------------------------------|
B|---------------------------------|-----0---0---0-------0---0---0---|
G|-----5-4-5---5-------5-4-5---5---|---0---2---0---0---0---2---0-----|
D|---4-------4---4---4-------4---4-|-------------------------------4-|
A|---------------------------------|---------------------------------|
E|-3---------------3---------------|-3---------------3---------------|
 
 
   |       |       |       |         |       |       |       |
e|---------------------------------|---------------------------------|
B|-----0---0-----------------------|---------------------------------|
G|-------2---0---0---0---0---------|---0-2-0-2-0-2-0---0-2-0-2-0-2-0-|
D|---2---------4---2---4-----0-----|---------------------------------|
A|-------------------------2---4-2-|-4---------------4---------------|
E|-3-------------------------------|---------------------------------|
 
 
   |       |       |       |         |       |       |       |
e|---------------------------------|---------------------------------|
B|-----3-2-3-----------------------|---------------------------------|
G|---2-------2-0-2---2-0-2---------|-----0---0---0-------0---0---0---|
D|-4---------------4-------0-4-2-0-|-------4---------------4---------|
A|---------------------------------|---2-------2---2---2-------2---2-|
E|---------------------------------|-0---------------0---------------|
 
 
   |       |       |       |         |       |       |       |
e|---------------------------------|---------------------------------|
B|-----------------------3-2-0-----|-------3---3---------------------|
G|-----------------0-----------2-0-|---------2-----2-------2-0-------|
D|-----0-2-0---------4-2-----------|-4-2-0-------4---0-2-4-----4-2-0-|
A|---4-------4-2-0-----------------|---------------------------------|
E|-0-------------------------------|---------------------------------|
 
 
   |       |       |       |         |       |       |       |
e|---------------------------------|---------------------------------|
B|---------------------------------|-------0-1-------------0-1-------|
G|-1-----------1---4-----------1---|-----2-----2---------2-----2-----|
D|---0-3-2-3-0---0---0-3-2-3-0---0-|---2---------2-0---2---------4-2-|
A|---------------------------------|-3---------------3---------------|
E|---------------------------------|---------------------------------|
 
 
   |       |       |       |         |       |       |       |
e|---------------------------------|---------------------------------|
B|---------------------------------|---------------------------------|
G|---------------------------------|-0-----0---0-2---0---------------|
D|---4---4-7-4-7-4---4---4-7-4-7-4-|---4-2---4-----4---4-2-0---------|
A|-6---6-----------6---6-----------|-------------------------3-2-0---|
E|---------------------------------|-------------------------------3-|
 
 
   |       |       |       |         |       |       |       |
e|---------------------------------|---------------------------------|
B|---------------------------------|---------------------------------|
G|---------------------------------|---------------------------------|
D|-----0---0---0-------0---0---0---|-----3-2-3---3-------3-2-3---3---|
A|---3---3---3---3---3---3---3---3-|---2-------2---2---2-------2---2-|
E|-2---------------2---------------|-3---------------3---------------|
 
 
   |       |       |       |         |       |       |       |
e|---------------------------------|---------------------------------|
B|---------------------------------|-------0---------------0---------|
G|---------------------------------|-----5---5---5-------5---5---5---|
D|-----2-0-2---2-------2-0-2---2---|---4-------4---4---4-------4---4-|
A|---3-------3---3---3-------3---3-|---------------------------------|
E|-3---------------3---------------|-3---------------3---------------|
 
 
   |       |       |       |         |       |       |       |
e|---------------------------------|---------------------------------|
B|-----0---0-----------------------|---------------------------------|
G|-------2---0---------------------|---------0-----0---------0-----0-|
D|---0---------4-2-0-------------0-|-----2-4---2-4-------2-4---2-4---|
A|-------------------3-2-0---------|-4-0-------------3-0-------------|
E|-3-----------------------3-2-0---|---------------------------------|
 
 
   |       |       |       |         |       |       |       |
e|---------------------------------|---------------------------------|
B|---------------------------------|-----------2-3~~~~---------------|
G|---------------------------------|---------2---------------------0-|
D|-----0-2-4-0-2-4-----0-2-4-0-2-4-|-----0-4-----------------0-2-4---|
A|-3-0-------------3-0-------------|-3-0---------------0-2-3---------|
E|---------------------------------|---------------------------------|
 
 
   |       |       |       |         |       |       |       |
e|---------------------------------|---------------------------------|
B|---------------0-1---------0-1-3-|-4-3-2-3-3-1-0-1-1---------------|
G|-2---------0-2-----2---0-2-------|-------------------2-------------|
D|---4-0-2-4-----------4-----------|---------------------4-2-0-------|
A|---------------------------------|---------------------------0-2-3-|
E|---------------------------------|---------------------------------|
 
 
   |       |       |       |         |       |       |       |
e|---------------------------------|---------------------------------|
B|-----------0-1---0---------------|-------------0---2---------------|
G|---------2-----2---0-------------|---------0-2---0---3-2-3-3-2-1-2-|
D|-0---0-4-------------0-----------|-0-----0-------------------------|
A|---0-------------------3-2---0-2-|-----2---------------------------|
E|---------------------------3-----|---3-----------------------------|
 
 
   |       |       |       |         |       |       |       |
e|---------------------------------|---------------------------------|
B|---------------------------2-3-2-|-3-------------------------------|
G|-2-0---0-0-------------0-2-------|---2-------2---------------------|
D|-----4-----2---------2-----------|-----4-2-4---0-4---0-------------|
A|-------------4-2-0-4-------------|-----------------0---4-2-0-------|
E|---------------------------------|---------------------------3-2-0-|
 
 
   |       |       |       |         |       |       |       |
e|---------------------------------|---------------------------------|
B|-----1-0-----------1-0-----------|---0-----------------------------|
G|---------2-0-----------2-0-------|-----2-0-----------2-0-----------|
D|-0~~~--------4-2-0---------4-2-0-|---------4-2-0---------4-2-0-----|
A|---------------------------------|-3-------------3-2-----------3-2-|
E|---------------------------------|---------------------------------|
 
   |       |       |       |         |       |       |       |
e|---------------------------------|---------------------------------|
B|---------------------------------|---------------------------------|
G|---0-------2---2---2---2-0-2---2-|---2---2-0-2---2---2---2-0-2---2-|
D|-----4-2-4---0---2---4-------2---|-4---0-------2---4---0-------2---|
A|-0-------------------------------|---------------------------------|
E|---------------------------------|---------------------------------|
 
 
   |       |       |       |         |       |       |       |
e|---------------------------------|---------------------------------|
B|-------------------------0-------|-----0---1-------0---1---3---0---|
G|---2---2---2---2-0-2-2-2---2---2-|-2-2---2---2---2---2---2---2---2-|
D|-4---0---2---4---------------0---|-------------0-------------------|
A|---------------------------------|---------------------------------|
E|---------------------------------|---------------------------------|
 
 
   |       |       |       |         |       |       |       |
e|---------------------------------|---------------------------------|
B|-1---0---1-------0-------0-------|---------------------------------|
G|---2---2---2-2-2---2-2-2---2-0-2-|-2-2-0-2-2-2---2-0-2---2-0-2---2-|
D|---------------------------------|-------------4-------4-------2---|
A|---------------------------------|---------------------------------|
E|---------------------------------|---------------------------------|
 
 
   |       |       |       |         |       |       |       |
e|---------------------------------|---------------------0---1---2---|
B|---------------------------------|-0---1---2---3---4---------------|
G|---2-------------0---1---2---3---|---------------------------------|
D|-4---0-2-3-0-4-0---0---0---0---0-|---0---0---0---0---0---0---0---0-|
A|---------------------------------|---------------------------------|
E|---------------------------------|---------------------------------|
 
 
   |       |       |       |         |       |       |       |
e|-3-------3---3---3-------3---3---|-3-------3---3---3-------3---3---|
B|---0---0---0---0---0---0---0---0-|---------------------------------|
G|---------------------------------|---2---2---2---2---2---2---2---2-|
D|-----0---------------0-----------|-----0---------------0-----------|
A|---------------------------------|---------------------------------|
E|---------------------------------|---------------------------------|
 
 
   |       |       |       |         |       |       |       |
e|-2-------2---2---2-------2---2---|-3~~~~~~~~~~~~~~~~~~~~~~~~~~~~~~-|
B|---1---1---1---1---1---1---1---1-|-0~~~~~~~~~~~~~~~~~~~~~~~~~~~~~~-|
G|---------------------------------|---------------------------------|
D|-----0---------------0-----------|---------------------------------|
A|---------------------------------|---------------------------------|
E|---------------------------------|-3~~~~~~~~~~~~~~~~~~~~~~~~~~~~~~-|


Login to Edit
Edit
YouTube
Video
View Sheet Music
Sheet
Music
Print
Speed:
Play Intro (login for the full song)
Play
Intro
Sustain:
Download midi (intro) ...

2 Votes
5 star: 100%  (2)
4 star:  (0)
3 star:  (0)
2 star:  (0)
1 star:  (0)
0 star:  (0)
 Rate:
5 star
4 star
3 star
2 star
1 star
 

Comments (0)
 

No comments yet...

Comment on this tab   -   Unhelpful comments are exterminated.
  Your Guest Name:
      [Member Login]
  Comments:
 

Don't understand the tab?
See "How to Read Guitar Tabs".
Supported tags:
<i>italics</i>
<b>bold</b>
<u>underline</u>
<tab>tab lines</tab>
  Are you a spam robot?

If not, solve the equation:




[33127 TabNabbers online]


©2021 TabNabber.com - Musician Supported Contact us Advertising Merchandise Privacy Policy Terms of Use facebook Twitter