TabNabber Tabs   Musician Supported
  Music Tabs
Espa˝ol English
Franšais Русский
guitar

Guitar Tab, Chords



(0 from 0 votes)
420 Views, Last Update 1 month ago
by: TurnoverSImp
guest
[Guest]
eb|-------------------------------------------------------------------------|
Bb|-------------------------------------------------------------------------|
Gb|-------------------------------------------------------------------------|
Db|--9--9999---9-9999---9--9999---9-9999---7--7777--7--7777--7--7777--7-7777|
Ab|--9--9999---9-9999---9--9999---9-9999---5--5555--5--5555--5--5555--5-5555|
Db|--9--9999---9-9999---9--9999---9-9999---5--5555--5--5555--5--5555--5-5555|

eb|--------------------------------------------------------------------------
Bb|--------------------------------------------------------------------------
Gb|--------------------------------------------------------------------------
Db|--77-7-77-7-77-7-77-7--7-77-7-77-7-77-7-77-7---9-99-9-99-9-7-77-7-77--7-77
Ab|--55-5-55-5-55-5-55-5--5-55-5-55-5-55-5-55-5---9-99-9-99-9-7-77-7-77--5-55
Db|-----------------------5-55-5-55-5-55-5-55-5---9-99-9-99-9-7-77-7-77--5-55

 
eb|--------------------------------------|
Bb|--------------------------------------|
Gb|--------------------------------------|
Db|--7-77-7-77-7-77-7--------------------|
Ab|--5-55-5-55-5-55-5--------------------|
Db|--5-55-5-55-5-55-5--------------------|

eb|-------------------------------------------------------------------------|
Bb|-------------------------------------------------------------------------|
Gb|-------------------------------------------------------------------------|
Db|--7777777777777777----99999999----77777777-------------------------------|
Ab|--5555555555555555----99999999----77777777-------------------------------|
Db|--5555555555555555----99999999----77777777-------------------------------|

eb|-------------------------------------------------------------------------|
Bb|-------------------------------------------------------------------------|
Gb|-------------------------------------------------------------------------|
Db|--7777777777777777----99999999----77777777-------------------------------|
Ab|--5555555555555555----99999999----77777777-------------------------------|
Db|--5555555555555555----99999999----77777777-------------------------------|

eb|-------------------------------------------------------------------------|
Bb|-------------------------------------------------------------------------|
Gb|-------------------------------------------------------------------------|
Db|--77777777----9999----7777-----------------------------------------------|
Ab|--55555555----9999----7777-----------------------------------------------|
Db|--55555555----9999----7777-----------------------------------------------|

eb|-------------------------------------------------------------------------|
Bb|-------------------------------------------------------------------------|
Gb|-------------------------------------------------------------------------|
Db|--7777777777777777----99999999----77777777-------------------------------|
Ab|--5555555555555555----99999999----77777777-------------------------------|
Db|--5555555555555555----99999999----77777777-------------------------------|

eb|----------------------------|
Bb|----------------------------|
Gb|----------------------------|
Db|--777--7~~------------------|
Ab|--555--5~~------------------|
Db|--555--5~~------------------|


Login to Edit
Edit
YouTube
Video
View Sheet Music
Sheet
Music
Print
Speed:
Play Intro (login for the full song)
Play
Intro
Sustain:
Download midi (intro) ...

 Rate:
5 star
4 star
3 star
2 star
1 star
 

Comments (0)
 

No comments yet...

Comment on this tab   -   Unhelpful comments are exterminated.
  Your Guest Name:
      [Member Login]
  Comments:
 

Don't understand the tab?
See "How to Read Guitar Tabs".
Supported tags:
<i>italics</i>
<b>bold</b>
<u>underline</u>
<tab>tab lines</tab>
  Are you a spam robot?

If not, solve the equation:




[31721 TabNabbers online]


©2021 TabNabber.com - Musician Supported Contact us Advertising Merchandise Privacy Policy Terms of Use facebook Twitter