TabNabber Tabs   Musician Supported
  Music Tabs
Espa˝ol English
Franšais Русский
electric guitar

Guitar Tab, Chords



(0 from 0 votes)
329 Views, Last Update 1 month ago
by: Michael Jackson
guest
[Guest]
Drop D tuning
 
King and the Bull v1.0
 
by Darren Korb
tabbed by Rockett
 
* = palm mute
p = pull off
h = hammer on
~ = let it ring
 
 
E|-----------------------------|
B|-----------------------------|
G|-----------------------------|
D|-----------------------------|
A|-5p3p0----5p3p0----5p3p0-5~--|
D|-------h6-------h6-------5~--|
 
 
E|---------------------------------------------------------------------------|
B|---------------------------------------------------------------------------|
G|---------------------------------------------------------------------------|
D|---------------------------------------------------------------------------| play x4
A|-----5-----3-----1-------------------5-----3-----1---------------3-5-3------|
D|-000---000---000---000-6-000-5---000---000---000---000-6---0-3-6-------6p3p0-|
   ***   ***   ***   ***   ***     ***   ***   ***   ***
 
E|----------------------------------------------------------------------------|
B|----------------------------------------------------------------------------|
G|----------------------------------------------------------------------------|
D|----------------------------------------------------------------------------| play x2
A|-----5-----3-----1-------------------5-----3-----1---------------3h5p3-------|
D|-000---000---000---000-6-000-5---000---000---000---000-6---0h3h6-------6p3p0--|
 
 
E|-----------------------------------------------------------------------------------|
B|-----------------------------------------------------------------------------------|
G|---------------------------------------------------------------------------- play--| x2
D|-----------------------------------------------------------------------------------|
A|-----5-----3-----1-----6-6-6---------5-----3-----1-0-6-----------------------------|
D|-000---000---000---000-6-6-6-----000---000---00------6-----------------------------|
   *** * *** * *** * *** * * * *   *** * *** * *** *
 
E|-----------------------------|
B|-----------------------------|
G|-----------------------------|
D|-----------------------------|
A|-5p3p0----5p3p0----5p3p0-5---|
D|-------h6-------h6-------5---|
 
 
E|----------------------------------------------------------|
B|----------------------------------------------------------|
G|----------------------------------------------------------| play x2 (listen to the song for the
D|-0-0-0-0-12--0-0-0-0-10-9--0-0-0-0-8--0-0-0-0-6-5-3-------| rhythm of the open power chords)
A|-0-0-0-0-12--0-0-0-0-10-9--0-0-0-0-8--0-0-0-0-6-5-3-------|
D|-0-0-0-0-12--0-0-0-0-10-9--0-0-0-0-8--0-0-0-0-6-5-3-------|
 
 
E|---------------------------------------------------------------------------|
B|---------------------------------------------------------------------------|
G|---------------------------------------------------------------------------|
D|-0-0-0-0-12--0-0-0-0-10-9--0-0-0-0-8--0-0-0-0-6-5-3--6-5-3--6-5-3--10-9-8~-|
A|-0-0-0-0-12--0-0-0-0-10-9--0-0-0-0-8--0-0-0-0-6-5-3--6-5-3--6-5-3--10-9-8~-|
D|-0-0-0-0-12--0-0-0-0-10-9--0-0-0-0-8--0-0-0-0-6-5-3--6-5-3--6-5-3--10-9-8~-|
 
 
E|---------------------------------------------------------------------------|
B|---------------------------------------------------------------------------|
G|---------------------------------------------------------------------------|
D|---------------------------------------------------------------------------| play x2
A|-----5-----3-----1-------------------5-----3-----1--------------3h5p3------|
D|-000---000---000---000-6-000-5---000---000---000---000-6---0h3h6-----6p3p0-|
   ***   ***   ***   ***   *** ph  ***   ***   ***   ***
 
E|----------------------------------------------------------------------------|
B|----------------------------------------------------------------------------|
G|----------------------------------------------------------------------------|
D|----------------------------------------------------------------------------| play x2
A|-----5-----3-----1-------------------5-----3-----1--------------3h5p3-------|
D|-000---000---000---000-6-000-5---000---000---000---000-6---0h3h6-----6p3p0--|
 
 
E|----------------------------------------------------------------------------|
B|----------------------------------------------------------------------------|
G|----------------------------------------------------------------------------| play x2
D|----------------------------------------------------------------------------|
A|-----5-----3-----1-----6-6-6---------5-----3-----1-0-6----------------------|
D|-000---000---000---000-6-6-6-----000---000---00------6----------------------|
   *** * *** * *** * *** * * * *   *** * *** * *** *
 
E|-------------------------------|
B|-------------------------------|
G|-------------------------------|
D|-------------------------------|
A|-5p3p0----5p3p0----5p3p0-5-----|
D|-------h6-------h6-------5v----|
 
 
E|----------------------------------------------------------|
B|----------------------------------------------------------|
G|----------------------------------------------------------| play x2
D|-0-0-0-0-12--0-0-0-0-10-9--0-0-0-0-8--0-0-0-0-6-5-3-------|
A|-0-0-0-0-12--0-0-0-0-10-9--0-0-0-0-8--0-0-0-0-6-5-3-------|
D|-0-0-0-0-12--0-0-0-0-10-9--0-0-0-0-8--0-0-0-0-6-5-3-------|
   * * * *     * * * *       * * * *    * * * *
 
E|---------------------------------------------------------------------------|
B|---------------------------------------------------------------------------|
G|---------------------------------------------------------------------------|
D|-0-0-0-0-12--0-0-0-0-10-9--0-0-0-0-8--0-0-0-0-6-5-3--6-5-3--6-5-3--10-9-8~-|
A|-0-0-0-0-12--0-0-0-0-10-9--0-0-0-0-8--0-0-0-0-6-5-3--6-5-3--6-5-3--10-9-8~-|
D|-0-0-0-0-12--0-0-0-0-10-9--0-0-0-0-8--0-0-0-0-6-5-3--6-5-3--6-5-3--10-9-8~-|
   * * * *     * * * *       * * * *    * * * *
 
E|--------------------------|
B|--------------------------|
G|--------------------------|
D|-8-8-8-8-8-8-8-8-8-8-8-8--|
A|-8-8-8-8-8-8-8-8-8-8-8-8--|
D|-8-8-8-8-8-8-8-8-8-8-8-8--|
 
 
E|----------------------------------------------------------|
B|----------------------------------------------------------|
G|----------------------------------------------------------|
D|-0-0-13-15--0-0-13-15--0-0-13-15--0-0-13-15--0-0-8--------| play x4
A|-0-0-13-15--0-0-13-15--0-0-13-15--0-0-13-15--0-0-8--------|
D|-0-0-13-15--0-0-13-15--0-0-13-15--0-0-13-15--0-0-8--------|
 
 
E|----------------------------------------------------------------------|
B|----------------------------------------------------------------------|
G|----------------------------------------------------------------------|
D|-0-0-13-13-15--0-0-13-13-15--0-0-13-13-15--0-0-13-13-15--0-0-8~-------| play x4
A|-0-0-13-13-15--0-0-13-13-15--0-0-13-13-15--0-0-13-13-15--0-0-8~-------|
D|-0-0-13-13-15--0-0-13-13-15--0-0-13-13-15--0-0-13-13-15--0-0-8v-------|
 
 
E|---------------------------------------------------------|
B|---------------------------------------------------------|
G|---------------------------------------------------------|
D|-0-0-6~--------------------------------------------------|
A|-0-0-6~---------3h5p3------------------------------------|
D|-0-0-6~----0h3h6-----6p3p0-------------------------------|
 
 
E|----------------------------------------------|
B|----------------------------------------------|
G|----------------------------------------------|
D|-0-0-0-1-3--0-0-0-1-3--0-0-0-1-3--0-0-0-10----| play x4
A|-0-0-0-1-3--0-0-0-1-3--0-0-0-1-3--0-0-0-10----|
D|-0-0-0-1-3--0-0-0-1-3--0-0-0-1-3--0-0-0-10----|
   * * *      * * *      * * *      * * *
 
E|-----------------------------|
B|-----------------------------|
G|-----------------------------|
D|-----------------------------|
A|-5p3p0----5p3p0----5p3p0-5---|
D|-------h6-------h6-------5v--|
 
 
E|--------------------------|
B|--------------------------|
G|--------------------------|
D|--------------------------|
A|--------------------------|
D|-0000---------------------|


Login to Edit
Edit
YouTube
Video
View Sheet Music
Sheet
Music
Print
Speed:
Play Intro (login for the full song)
Play
Intro
Sustain:
Download midi (intro) ...

 Rate:
5 star
4 star
3 star
2 star
1 star
 

Comments (0)
 

No comments yet...

Comment on this tab   -   Unhelpful comments are exterminated.
  Your Guest Name:
      [Member Login]
  Comments:
 

Don't understand the tab?
See "How to Read Guitar Tabs".
Supported tags:
<i>italics</i>
<b>bold</b>
<u>underline</u>
<tab>tab lines</tab>
  Are you a spam robot?

If not, solve the equation:




[32857 TabNabbers online]


©2021 TabNabber.com - Musician Supported Contact us Advertising Merchandise Privacy Policy Terms of Use facebook Twitter