TabNabber Tabs   Musician Supported
  Music Tabs
Espa˝ol English
Franšais Русский
guitar

Guitar Tab, Chords



(0 from 0 votes)
394 Views, Last Update 1 month ago
by: Anonymous
guest
[Guest]
e|--------4-----------2-4-2-------0-2-0-----0-------------4-----------2-----------------|
b|--------5---------0---------------------0-----------------5-------0---0---------------|
g|------6---6-----4---4---------0-------1-----1-2-4-----6-----6---4-------4-------------|
d|----7-------7---------------2---2-------------------7---------------------------------|
a|--0-----------------------------------------------0-----------------------------------|
e|--------------4-----4-----2-----2-----0-----0-2-4-------------4-----4-----------------|

e|--------0-2-0-----------------4-7-4-------2-4-2-------0-2-0---------------------------|
b|------0-----------------------5-9-5-----0-----------0---------------------------------|
g|----2---2---------0-2-4-5-----6-------4---4-------2---2-------------------------------|
d|--------------1-2-----------7---------------------------------------------------------|
a|--------------------------0-----------------------------------------------------------|
e|--2-----2-----0---------------------4-----4-----2-----2-------------------------------|


e|--------0-2-4---4-4-7-4-------2-4-2-------0-2-0-------0-------------------------------|
b|------0---------5-5-9-5-----0-----------0-------------0-------------------------------|
g|----1-----------6---------4---4-------2---2-----------1-------------------------------|
d|----------------------------------------------------1-4-------------------------------|
a|--------------0-----------------------------------4---2-------------------------------|
e|--0---------------------4-----4-----2-----2-----0-----0-------------------------------|




Login to Edit
Edit
YouTube
Video
View Sheet Music
Sheet
Music
Print
Speed:
Play Intro (login for the full song)
Play
Intro
Sustain:
Download midi (intro) ...

 Rate:
5 star
4 star
3 star
2 star
1 star
 

Comments (0)
 

No comments yet...

Comment on this tab   -   Unhelpful comments are exterminated.
  Your Guest Name:
      [Member Login]
  Comments:
 

Don't understand the tab?
See "How to Read Guitar Tabs".
Supported tags:
<i>italics</i>
<b>bold</b>
<u>underline</u>
<tab>tab lines</tab>
  Are you a spam robot?

If not, solve the equation:




[31361 TabNabbers online]


©2022 TabNabber.com - Musician Supported Contact us Advertising Merchandise Privacy Policy Terms of Use facebook Twitter