TabNabber Tabs   Musician Supported
  Music Tabs
Espa˝ol English
Franšais Русский
guitar

Guitar Tab, Chords



(0 from 0 votes)
328 Views, Last Update 1 month ago
by: Anonymous
guest
[Guest]
e |-2-----0-----------------------------------------2-----0----------------------------------------|
B |-------------2-----0-----------------------------------------2-----0----------------------------|
F#|-------------------------2-----------2-----------------------------------2-----------2----------|
D |-------------------------------2-----------2-----------------------------------2-----------2----|
A |-0--0-----0--0--0-----0--0--0-----0--0--0-----0--0--0-----0--0--0-----0--0--0-----0--0--0-----0-|
E |------------------------------------------------------------------------------------------------|
 
e |-2-----0-----------------------------------------2-----0----------------------------------------|
B |-------------2-----0-----------------------------------------2-----0h2p0--------0-----------0---|
F#|-------------------------2-----------2------------------------------------0h2---------2---------|
D |-------------------------------2-----------2----------------------------------------------------|
A |-0--0-----0--0--0-----0--0--0-----0--0--0-----0--0--0-----0--0--0-------------------------------|
E |--------------------------------------------------------------------------0--0-----0--0--0-----0|
 
e |-----------------------------------------------------0-----2-----2/4--7--4-----2-----0----------|
B |-------0--------------------------------0------2----------------------------0--------------2----|
F#|-2-----------2p0---0-----0-----0h2--------------------------------------------------------------|
D |------------------------------------------------------------------------------------------------|
A |-------------------------------------------------------------------------------0--0-----0--0--0-|
E |-0--0-----0--0--0-----0-----0-----0--0------0--0--0-----0--0--0---------------------------------|
 
e |-------------------------------2-----0-----------------------------------------2-----0----------|
B |-0-----------------------------------------2-----0-----------------------------------------2----|
F#|-------2-----------2-----------------------------------2-----------2----------------------------|
D |-------------2-----------2-----------------------------------2-----------2----------------------|
A |----0--0--0-----0--0--0-----0--0--0-----0--0--0-----0--0--0-----0--0--0-----0--0--0-----0--0--0-|
E |------------------------------------------------------------------------------------------------|
 
e |-------------------------------2-----0----------------------------------------------------------|
B |-0-----------------------------------------2--0--0h2p0--------0-----------0-----------0---------|
F#|-------2-----------2------------------------------------0h2---------2-----------2--------3-----3|
D |-------------2-----------2---------------------------------------------------------------4------|
A |----0--0--0-----0--0--0-----0--0--0-----0--0--0--0----------------------------------------------|
E |--------------------------------------------------------0--0-----0--0--0-----0--0--0-----0--0---|
 
e |------------------------------------------------------------------------------------------------|
B |-----------0-----------0-----------0--0-0-0-0-0-0-----------------------------------------------|
F#|-----3/5------------------------------5-5-5-5-5-5-----------------------------------------------|
D |-----4/6---------6-----------6--------6-6-6-6-6-6-----------------------------------------------|
A |--------------------------------------0-0-0-0-0-0-----------------------------------------------|
E |--0--0--0-----0--0--0-----0--0--0---------------------------------------------------------------|
 
[Verse]
e |-2-----0-----------------------------------------2-----0----------------------------------------|
B |-------------2-----0-----------------------------------------2-----0----------------------------|
F#|-------------------------2-----------2-----------------------------------2-----------2----------|
D |-------------------------------2-----------2-----------------------------------2-----------2----|
A |-0--0-----0--0--0-----0--0--0-----0--0--0-----0--0--0-----0--0--0-----0--0--0-----0--0--0-----0-|
E |------------------------------------------------------------------------------------------------|
 
e |-2-----0-----------------------------------------2-----0----------------------------------------|
B |-------------2-----0-----0h2p0-------------------------------2--0--0h2p0--------0-----------0---|
F#|----------------------------2--------2------------------------------------0h2---------2---------|
D |-------------------------------2-----------2----------------------------------------------------|
A |-0--0-----0--0--0-----0--0--0-----0--0--0-----0--0--0-----0--0--0--0----------------------------|
E |--------------------------------------------------------------------------0--0-----0--0--0-----0|
 
e |------------------------------------------------------------------------------------------------|
B |-0-----2-----0-----0-----------0-----------0--0-0-0-0-0-0--------------2--------------2---------|
F#|-------------------------3/5------------------5-5-5-5-5-5--------3--------3-----3-----------2h3-|
D |-------------------------4/6---------6--------6-6-6-6-6-6--4-----------------4------------------|
A |----------------------------------------------0-0-0-0-0-0---------------------------------------|
E |-0--0-----0--0--0-----0--0--0-----0--0--0------------------2--2-----2--2--2--2--2--2-----2--2--2|
 
e |------------------------------------------------------------------------------------------------|
B |--2-----------------0-----------------------0-----------0---------------------------------------|
F#|--------3-----------------7-----------------------7-----------7--2-----------2-----------2------|
D |--------------4-----------------6--------------------------------------2-----------2-----------2|
A |--------------------------------------7--------------------------0--0-----0--0--0-----0--0--0---|
E |-----2--2--2-----2--4--4-----4--4--4-----4--4--4-----4--4--4------------------------------------|
 
e |------------------------------------------------------------------------------------------------|
B |----0-----0h2p0--------------------------0-----0h2p0----------------2-----------------0---------|
F#|-----------------2-----------2-----------------------2-----0--2h3---------3-----------------7---|
D |-----------------------2-----------2--------------------2-----------------------4---------------|
A |-0--0--0---------0--0-----0--0--0-----0--0--0-----------0--0------------------------------------|
E |--------------------------------------------------------------2--2-----2--2--2-----2--4--4-----4|
 
e |---------------------x--------------------------------------------------------------------------|
B |---------------------x--------0-----------0-----------0-----------0-----0-----2-----------------|
F#|--------------7~~~7--x--0h2---------2-----------2-----------2-----------------------2-----------|
D |-6----------------6--x--------------------------------------------------------------------2-----|
A |-------7----------7--x--------------------------------------------------0--0-----0--0--0-----0--|
E |-4--4-----4---5~~~5--x--0--0-----0--0--0-----0--0--0-----0--0--0-----0--------------------------|
 
e |-------2-----------2----------------------------------------------------------------------------|
B |-2-----------2-----------------------2-----------2-----------2----------------------------------|
F#|-------------------------0-----2h3---------3-----------3-----------2-----2-----6-----------6----|
D |----------------------------2-------------------------------------------------------------------|
A |-0--0-----0--0--0-----0--0-----------------------------------------------------------7----------|
E |----------------------------0--2--2-----2--2--2-----2--2--2-----2--2--2-----2--5--5-----5--5--5-|
 
e |------------------------------------------------------------------------------------------------|
B |-------------------------------------0-----------0-----------0-----0-----2-----------------0----|
F#|-------6-----------5-----3-----0h2---------2-----------2-----------------------2----------------|
D |-------------------------------------------------------------------------------------2----------|
A |-7-----------7-----------------------------------------------------0--0-----0--0--0-----0--0--0-|
E |----5--5--5-----5--4--2-----2--0--0-----0--0--0-----0--0--0-----0-------------------------------|
         Note in brackets is actually an E so approach that as you will, i just leave it out
e |------------------------------------------------------------------(0)---------------------------|
B |-2-----0-----2-----------2-----------------0-----------------------1----------------------------|
F#|----------------0--2h3---------3-----------------7-----------------2----------------------------|
D |-------------------------------------4-----------------6-----------2--2-------------------------|
A |----0--0--0--------------------------------------------------7-----0-----------0--0--0----------|
E |----------------0--2--2-----2--2--2-----2--4--4-----4--4--4-----4-------------------------------|
 
[Outro]
e |-2-----0-----------------------------------------2-----0----------------------------------------|
B |-------------2-----0-----------------------------------------2-----0----------------------------|
F#|-------------------------2-----------2-----------------------------------2-----------2----------|
D |-------------------------------2-----------2-----------------------------------2-----------2----|
A |-0--0-----0--0--0-----0--0--0-----0--0--0-----0--0--0-----0--0--0-----0--0--0-----0--0--0-----0-|
E |------------------------------------------------------------------------------------------------|
 
e |-2-----0-----------------------------------------2-----0----------------------------------------|
B |-------------2-----0-----------------------------------------2-----0h2p0------------------------|
F#|-------------------------2-----------2-----------------------------------2-----------2----------|
D |-------------------------------2-----------2-----------------------------------2-----------2----|
A |-0--0-----0--0--0-----0-----0-----0--0--0-----0--0--0-----0--0--0-----0--0--0-----0--0--0-----0-|
E |------------------------------------------------------------------------------------------------|
 
e |-2-----0-----------------------------------------2-----0----------------------------------------|
B |-------------2-----0-----------------------------------------2-----0----------------------------|
F#|-------------------------2-----------2-----------------------------------2-----------2----------|
D |-------------------------------2-----------2-----------------------------------2-----------2----|
A |-0--0-----0--0--0-----0--0--0-----0--0--0-----0--0--0-----0--0--0-----0--0--0-----0--0--0-----0-|
E |------------------------------------------------------------------------------------------------|
 
e |-2-----0-----------------------------------------2-----0----------------------------------------|
B |-------------2-----0-----------------------------------------2-----0h2p0--------0-----------0---|
F#|-------------------------2-----------2------------------------------------0h2---------2---------|
D |-------------------------------2-----------2----------------------------------------------------|
A |-0--0-----0--0--0-----0--0--0-----0--0--0-----0--0--0-----0--0--0-------------------------------|
E |--------------------------------------------------------------------------0--0-----0--0--0-----0|
 
e |------------------------------------------------------------------------------------------------|
B |-------0-----0-----0-----------------------0-----------0-----------0---0-0-0-0-0-0-0-0-0-0-0----|
F#|-2-----------2-----------3-----3-----3/5-------------------------------5-5-5-5-5-5-5-5-5-5-5----|
D |-------------------------4-----------4/6---------6-----------6---------6-6-6-6-6-6-6-6-6-6-6----|
A |-----------------------------------------------------------------------0-0-0-0-0-0-0-0-0-0-0----|
E |-0--0-----0--0--0-----0--0--0-----0--0--0-----0--0--0-----0--0--0-------------------------------|
 
e |-2-----0-----------------------------------------2-----0----------------------------------------|
B |-------------2-----0-----------------------------------------2-----0----------------------------|
F#|-------------------------2-----------2-----------------------------------2-----------2----------|
D |-------------------------------2-----------2-----------------------------------2-----------2----|
A |-0--0-----0--0--0-----0--0--0-----0--0--0-----0--0--0-----0--0--0-----0--0--0-----0--0--0-----0-|
E |------------------------------------------------------------------------------------------------|
 
e |-2-----0-----------------------------------------2-----0----------------------------------------|
B |-------------2-----0-----------------------------------------2-----0----------------------------|
F#|-------------------------2-----------2-----------------------------------2----------------------|
D |-------------------------------2-----------2----------------------------------------------------|
A |-0--0-----0--0--0-----0--0--0-----0--0--0-----0--0--0-----0--0--0-----0--0----------------------|
E |------------------------------------------------------------------------------------------------|


Login to Edit
Edit
YouTube
Video
View Sheet Music
Sheet
Music
Print
Speed:
Play Intro (login for the full song)
Play
Intro
Sustain:
Download midi (intro) ...

 Rate:
5 star
4 star
3 star
2 star
1 star
 

Comments (0)
 

No comments yet...

Comment on this tab   -   Unhelpful comments are exterminated.
  Your Guest Name:
      [Member Login]
  Comments:
 

Don't understand the tab?
See "How to Read Guitar Tabs".
Supported tags:
<i>italics</i>
<b>bold</b>
<u>underline</u>
<tab>tab lines</tab>
  Are you a spam robot?

If not, solve the equation:




[117 TabNabbers online]


©2022 TabNabber.com - Musician Supported Contact us Advertising Merchandise Privacy Policy Terms of Use facebook Twitter