TabNabber Tabs   Musician Supported
  Music Tabs
Espa˝ol English
Franšais Русский
bass

Bass Guitar Tab, Chords



(0 from 0 votes)
374 Views, Last Update 26 days ago
by: Anonymous
guest
[Guest]
e|---------------------------------------------------------------------------|
b|---------------------------------------------------------------------------|
g|-------------9-------------------------------------------------------------|
d|---------9-----9----------------7------------------6/7-5----------5--------|
a|---5/7-----------7----------7-----7------7--6--5--------------/7-----------|
e|----------------------0h5-----------5----------------------3---------------|

e|---------------------------------------------------------------------------|
b|---------------------------------------------------------------------------|
g|-----------------9------------------4----5----6---------7h9p7-10-10-11~----|
d|-------------9-----9-----------7--------------------7h9--------------------|
a|---5--6--7-----------7------------2----3----4-----5------------------------|
e|---------------------------0-5------------------------------------------3--|

e|---------------------------------------------------------------------------|
b|---------------------------------------------------------------------------|
g|---7\----9\------------------5p4-------------------------------------------|
d|-----------------------7h9p7-----5-----------------------------------------|
a|---5\----8\--------5h7----------------0--2--3--4--5------------------------|
e|---------------3---------------------------------------/\1-----------------|

e|---------------------------------------------------------------------------|
b|---------------------------------------------------------------------------|
g|---7\----9\------------------5p4-------------------------------------------|
d|-----------------------7h9p7-----5-----------------------------------------|
a|-------------------------------------3---------5----5--7--8----8--10-------|
e|---/5---3-3-3333----/15-15-15-15--/\-----3--5-------------------------8----|


Login to Edit
Edit
YouTube
Video
View Sheet Music
Sheet
Music
Print
Speed:
Play Intro (login for the full song)
Play
Intro
Sustain:
Download midi (intro) ...

 Rate:
5 star
4 star
3 star
2 star
1 star
 

Comments (0)
 

No comments yet...

Comment on this tab   -   Unhelpful comments are exterminated.
  Your Guest Name:
      [Member Login]
  Comments:
 

Don't understand the tab?
See "How to Read Guitar Tabs".
Supported tags:
<i>italics</i>
<b>bold</b>
<u>underline</u>
<tab>tab lines</tab>
  Are you a spam robot?

If not, solve the equation:




[700 TabNabbers online]


©2022 TabNabber.com - Musician Supported Contact us Advertising Merchandise Privacy Policy Terms of Use facebook Twitter