TabNabber Tabs   Musician Supported
  Music Tabs
Espa˝ol English
Franšais Русский
guitar

Guitar Tab, Chords



(0 from 0 votes)
28 Views, Last Update 7 days ago new
by: Anonymous
guest
[Guest]
e||--------------------------------|--------------------------------|
B||--------12--12--12------10--12--|13------12------12--------------|
G||--------------------------------|--------------------------------|
D||--------------------------------|--------------------------------|
A||--------------------------------|--------------------------------|
E||--------------------------------|--------------------------------|

e||--------------------------------|--------------------------------|
B||--------------------------------|10------------------------------|
G||----12--12--12--12------11--12--|--------12------11--------------|
D||--------------------------------|--------------------------------|
A||--------------------------------|--------------------------------|
E||--------------------------------|--------------------------------|

e||--------------------------------|--------------------------------|
B||--------------------------------|--------------------------------|
G||----11--11--11--11--------------|----11--11--11--11--------------|
D||--------------------------------|--------------------------------|
A||--------------------------------|--------------------------------|
E||--------------------------------|--------------------------------|

e||--------------------------------|--------------------------------|
B||--------------------------------|--------------------------------|
G||----12--11------11------12------|--------------------------------|
D||------------14------------------|14------------------------------|
A||--------------------------------|--------------------------------|
E||--------------------------------|--------------------------------|

e||--------------------------------|--------------------------------|
B||--------------------------------|--------------------------------|
G||--------------------------------|12--12--12--12--12--12------12--|
D||14--14--14------14------14--14--|--------------------------------|
A||--------------------------------|--------------------------------|
E||--------------------------------|--------------------------------|

e||--------------------------------|--------------------------------|
B||10--10--10------10--10--10------|12--12--12--12--12--12--10--12--|
G||--------------------------------|--------------------------------|
D||--------------------------------|--------------------------------|
A||--------------------------------|--------------------------------|
E||--------------------------------|--------------------------------|

e||--------------------------------|--------------------------------|
B||13--13--13--13--13--13--13------|12--12--12--12--12------12--12--|
G||--------------------------------|--------------------------------|
D||--------------------------------|--------------------------------|
A||--------------------------------|--------------------------------|
E||--------------------------------|--------------------------------|

e||--------------------------------|--------------------------------|
B||--------------------------------|--------------------------------|
G||12--12--12--12--12--12--12--12--|12--12--12--12--12--12--12--12--|
D||--------------------------------|--------------------------------|
A||--------------------------------|--------------------------------|
E||--------------------------------|--------------------------------|


Login to Edit
Edit
YouTube
Video
View Sheet Music
Sheet
Music
Print
Speed:
Play Intro (login for the full song)
Play
Intro
Sustain:
Download midi (intro) ...

 Rate:
5 star
4 star
3 star
2 star
1 star
 

Comments (0)
 

No comments yet...

Comment on this tab   -   Unhelpful comments are exterminated.
  Your Guest Name:
      [Member Login]
  Comments:
 

Don't understand the tab?
See "How to Read Guitar Tabs".
Supported tags:
<i>italics</i>
<b>bold</b>
<u>underline</u>
<tab>tab lines</tab>
  Are you a spam robot?

If not, solve the equation:




[522 TabNabbers online]


©2022 TabNabber.com - Musician Supported Contact us Advertising Merchandise Privacy Policy Terms of Use facebook Twitter