TabNabber Tabs   Musician Supported
  Music Tabs
Espa˝ol English
Franšais Русский
guitar

Guitar Tab, Chords



(0 from 0 votes)
31 Views, Last Update 7 days ago new
by: Anonymous
guest
[Guest]
****************************
Sonata #2, by Eduardo Angulo
****************************

Transcribed from the sheet music by Maxime Bergeron (mazout360@hotmail.com).

Video: http://www.youtube.com/watch?v=P5eiaIeDYqs (Anton Baranov)

Reminder: 7AH = 7NH = 19NH

See the Legend below the tab.

tuning: DADGBE           time: 5/4          tempo: 48 bpm

1    Q.     E  E  E  E  E  E  E     Q.     E  E  E  E  E  E   E
E||------------------------------|---------------------------10--|
B||------------------------------|---------------------7--6------|
G||---------------------------2--|--2------4--3--2--7------------|
D||---------------------0--3-----|-------------------------------|
A||---------0--2--1--0-----------|-------------------------------|
D||--0---------------------------|-------------------------------|

3 Q    E  E  E  E  E    E  Q       E  E  E  E  Q    Q    E  E
--5----------5--6--5-------5----|--L--------1--0----L----L--0--|
--6-------8--5-----3--<>3-------|-----8--0-----2---------------|
--7----------5-----3------------|--5-----0-----2---------------|
--8----7-----5-----3------------|--7-----0-----2---------------|
--------------------------------|--7----------------0----------|
--------------------------------|------------------------------|

                                                       |-3-|
5 E  E  Q.     E  E  E  Q       S  S E  E  E  E  E  E  S S S E  E
--0--1--3------5--3--1-------|----------------0--2--3--------------|
--0-----2------3--2--0--5----|----------------0-----3--0-0-0-0--2--|
--0-----2------3--2--0--3----|----------------0-----2--------------|
--0-----2------3--2--0--5----|----------------0-----2--------------|
--0---------------------4----|--3p-1-0--------2--------------------|
-----------------------------|----------5--3--2--------------------|

                                             |-3-|
7 E  E  Q     S S  E   Q     S   S  E     E  S S S E  E  E  E  E  S S E  E
--2--0-------10-8----------------------|--5-----------3--5--8--5------------|
--0-----3-----8---11--11----11s-10-10--|--3-----------1--3--5--6---------8--|
--0-----0-----8--------------8---------|--3-----------2--3--6--7------------|
--0-----1-----8-------------10---------|--3--------------------8------------|
--------1--------------------9---------|--5---------------------------------|
---------------------------------------|--3--0-0-0-0--------------5-5-5-----|

            |--3--|
9 Q.     E  E  E  E  Q    Q       E  E  E   E     E     E     Q       Q
--1------3--5--3--1--0---------|--------0------<>12--------<>11------------|
--2------------------2---------|-----4-----10--------<>10----------<>11----|
--0------------------2---------|--2----------------------------------------|
---------------------2---------|-------------------------------------------|
--1------------------0---------|--4----------------------------------------|
--------------------------5----|--1----------------------------------------|

11  Q.     E  E  E  E  E  E  E     Q.     E  E  E  E  E  E  E
--<>5---------------------------|---------------------2----------|
--------------------------------|---------0--------3--3--6-------|
-----------------------------2--|--2---------3--2-----2--3--<>7--|
-----------------------0--3-----|--0------0--0--------0--3-------|
-----------0--2--1--0-----------|--1------------------0--5-------|
----0---------------------------|---------5--3--------0--5-------|

13  Q.    E  E  E  E   E  Q       E  Q    E  H        E  E
----------3--5--6--5--10--5----|--L--3----1--0-----------0--|
-------------------------------|-----3-------2--------------|
----------0--2--3--2---7--2----|--L--4-------2--------------|
--<>7--------------------------|-----3-------2--------------|
-------------------------------|-----5-------0--------------|
-------------------------------|-----5----3--2--------------|

   Mas animado
               |--3-| |--3-|    |--3-|    |--3-|
15 E           S  S S S  S S E  S  S S E  S  S S E  E  E
---0------------------------------------------------3--3--|
---1-----------0h-1-0--------------------------1-3--5--5--|
---2------------------2h-4-2-0-------2-2--2h-4------4--4--|
---3----------------------------3h-5----------------------|
---0------------------------------------------------0--0--|
---0------------------------------------------------------|

      |-3-| |-3-| |-3-| |-3-| |-3-|    |-3-|
16 E  S S S S S S S S S S S S S S S E  S S S E  E
---0--------------------------0-1-3-3------1-3--6--|
---1--------------------0-1-3-------1--3-4------4--|
---2----------------0-2-------------1-----------4--|
---3----------0-2-3-----------------1-----------4--|
---0----0-2-3--------------------------------------|
---0--5--------------------------------------------|

   |-3-|    |--3-|    |-3-| |-3-| |-3-| |-3-| |-3-| |-3-|
17 S S S E  S  S S E  S S S S S S S S S S S S S S S S S S
---3-3-3-3-------1-3------------------------------1-3-4-6-|
---1-1-1-1--3h-4----------------------------1-3-4---------|
---1-1-1-1------------------------------1-3---------------|
---1-1-1-1------------------------1-3-5-------------------|
---3-3-3-3------------------1-3-5-------------------------|
---1-1-1-1------------3-5-6-------------------------------|

      |-3-|
18 E  S S S E  S S S S E  E  E  S S E
---7--0-0-0-0-------------0--1--1-0----|
---5--0-0-0-0--3-1-0-1-0--0--1------3--|
---5--0-0-0-0--4-2-0-2-0--0--2--2-0----|
---5--2-2-2-2-------------2--3------3--|
---5--0-0-0-0-------------0--0---------|
---0--0-0-0-0-------------0--0---------|

                        |--3-|    |--3-| |--3-|
19 E  S S E  S S E  S S S  S S E  S  S S S  S S
---3--6-5-3--6-5-3------------------------------|
---3--8-6-5-----------------------------------6-|
---3---------7-5-3-------------0---------5h-7---|
---3----------------3-2-0h-2-3---------7--------|
---5------------------------------7h-8----------|
---0--------------------------------------------|

      |--3-|        |--3-|
20 E  S  S S E  S S S  S S E  S S E  E  E     E  S S S S E  E  E  Q    E  E
---5--3p-1-0-------------------------------|---------------------------------|
---6---------3--1-0------------------------|---------------------------------|
---5----------------2h-4-2-0---------------|--0------------------------------|
---5--------------------------3-2-0--2--3--|-----3-1-0---0-------------------|
---5---------------------------------------|--3--------3----1--3-------------|
---5---------------------------------------|--1-------------------5----3--1--|

   Marcado (pizz.)
22 E               S S S S S S S S E  S S S S S S S S
------------------------------------------------------|
----------------------------------------3-1-0-1-0-----|
-----------------------2-----4-----5--L-----------2---|
---------------------3-----5-----3--------------------|
-------------------3-----5-----7--------------------0-|
---0--------------------------------------------------|

23 S S S S S S S S S S S S S S S S S S S S
---------------------------------3-5-------|
---------------------------6---5-----6-----|
---------2-----4-----5---5---4---------5---|
-------3-----5-----3---7-----------------0-|
-----3-----5-----7-------------------------|
---0---------------------------------------|

24 S S S S S S S S S S E  S S  S S S S S  S
--------------------------------------------|
---------------1-----3----------------------|
---------3---2-----3------------------------|
-------5---2-----3-----0--L-2p-0---0--------|
-----5---------------------------3---3-1p-0-|
---5----------------------------------------|

                                    |-3-|
25 E  S S S S S S S S S S S S E  E  S S S
------------------------------------------|
----------3-----3-----3-----3-----------5-|
--------3-----3-----3-----3-----------6---|
------2-----4-----5-----7-----7--L--7-----|
------------------------------------------|
---5--------------------------------------|

      |-3-|         |-3-|
26 E  S S S E  Q    S S S E  E    E    E
---5--5-5-5-5-------5-5-5-5----------<>5--|
------5-5-5-5--4----5-5-5-5--4--<>4-------|
------6-6-6-6--6----6-6-6-6--6------------|
------7-7-7-7--5----7-7-7-7--5------------|
------7-7-7-7--0----7-7-7-7--0------------|
------5-5-5-5-------5-5-5-5---------------|

27 E  S S S S S S S S E  S S S S S S S S
-----------------------------------------|
----------------0----------3-1-0-1-0-----|
----------2---0-------5--L-----------2---|
--------3---0-------3--------------------|
------3-----------7--------------------0-|
---0-------------------------------------|

28 S S S S S S S S S S S S S S S S S S S S
---------------------------------3-5-------|
---------------0-----------6---5-----6-----|
---------2---0-------5---5---4---------5---|
-------3---0-------3---7-----------------0-|
-----3-----------7-------------------------|
---0---------------------------------------|

29 S S S S S S S S S S S S S S S S S S E
---------------------------0-1-----3------|
---------------1-----3---1-----2-----4----|
---------3---2-----3---0---------1-----3--|
-------5---2-----3------------------------|
-----5------------------------------------|
---5--------------------------------------|

      |-3-|       |-3-|       |-3-|    |-3-|
30 E  S S S E  E  S S S E  E  S S S E  S S S
------5-5-5-5-----------------5-5-5-5--------|
------5-5-5-5-----4---4-4-----5-5-5-5--4---4-|
------6-6-6-6--3----3---------6-6-6-6----3---|
------7-7-7-7-----------------7-7-7-7--------|
------7-7-7-7-----------------7-7-7-7--------|
------5-5-5-5-----------------5-5-5-5--------|

               |-3-| |-3-| |-3-| |-3-| |-3-| |-3-|
31 E  Q    E   S S S S S S S S S S S S S S S S S S
-----------6s--5-3-1-------------------------------|
---4--4--------------4-2-1-------------------------|
------6--------------------3-2-0-------------------|
------5--------------------------3-1---------------|
------0------------------------------4-3-1-0-------|
---------------------------------------------5-3-1-|

      |-3-|    |-3-|            |-3-|         |-3-|    |-3-|
32 E  S S S E  S S S E  Q    E  S S S E    E  S S S E  S S S E  Q    E  S S E
---0--0-0-0-0--0-0-0-0--1----3--3-3-3-3--|-0--0-0-0-0--0-0-0-0--1----1--3-3-3--|
---3--3-3-3-3--3-3-3-3--1----0--4-4-4-4--|-3--3-3-3-3--3-3-3-3--0----0--3-3-3--|
---2--2-2-2-2--2-2-2-2--1----0--3-3-3-3--|-2--2-2-2-2--2-2-2-2--0----0--3-3-3--|
---0--0-0-0-0--0-0-0-0--0----0--0-0-0-0--|-0--0-0-0-0--0-0-0-0--0----0--3-3-3--|
---0--0-0-0-0--0-0-0-0--0----0--0-0-0-0--|-0--0-0-0-0--0-0-0-0--2----2--5-5-5--|
---0--0-0-0-0--0-0-0-0--0----0--0-0-0-0--|-0--0-0-0-0--0-0-0-0--0----0--0-0-0--|

      |-3-|    |-3-|                         |-3-|         |-3-|
34 E  S S S E  S S S E  Q    E  S S E     E  S S S E  Q    S S S E  Q    E
---3--3-3-3-3--3-3-3-3--5----0--0-0-0--|--5--0-0-0-0--5----0-0-0-0--0----5--|
---3--3-3-3-3--3-3-3-3--5----0--0-0-0--|--5--0-0-0-0--5----0-0-0-0--0----5--|
---3--3-3-3-3--3-3-3-3--6----0--0-0-0--|--6--0-0-0-0--6----0-0-0-0--0----6--|
---5--5-5-5-5--5-5-5-5--5----0--0-0-0--|--5--0-0-0-0--5----0-0-0-0--0----5--|
---5--5-5-5-5--5-5-5-5--7----5--5-5-5--|--7--5-5-5-5--7----5-5-5-5--5----7--|
---3--3-3-3-3--3-3-3-3--5----5--5-5-5--|--5--5-5-5-5--5----5-5-5-5--5----5--|

      |-3-|    |-3-|
36 E  S S S E  S S S E   Q    E  S S E
---6--6-6-6-6--6-6-6-6---8----6--6-6-6--|
---6--6-6-6-6--6-6-6-6---8----6--6-6-6--|
---6--6-6-6-6--6-6-6-6---9----6--6-6-6--|
---8--8-8-8-8--8-8-8-8--10----8--8-8-8--|
---8--8-8-8-8--8-8-8-8--10----8--8-8-8--|
---8--8-8-8-8--8-8-8-8---8----6--6-6-6--|

37 E  T  T  T T S S S S E  S  S S S  S S S S S S
---5--3h-5p-3---0-------0------------------------|
---3----------7---3-2-3---------3------2-----0---|
---4-----------------------2h-4---0h-2-----0-----|
---5-------------------------------------4-----2-|
---0---------------------------------------------|
-------------------------------------------------|

38 E  T  T  T  T S S S S E  S  S S S  S S S S  S S
---------------------------------------------------|
---3--2h-3p-2p-0---------0-------------------------|
---0-------------2-0---0-0-------2------0----------|
---2-----------------4---0--2h-4---0h-2------------|
---0---------------------0----------------0-2s-9-0-|
---------------------------------------------------|

39 Q.     E  E  E  E  E  E  E     Q.     E  E  E  E  E  E  E
-------------------------------|---------------0--0-----------|
-------------------------------|--0------3--2-----2-----------|
----------------0--0--2--2-----|--0---------0-----2--2--2-----|
-------------4--------------4--|--0------2--2-----4-----------|
----------0-----2--2--4--4--5--|------------0-----0-----------|
---0---------------------------|--0---------0-----0--------4--|

                           NH    NH  |--3--|
41 E  E  E  E  E  E  E     E     E.  T   T T
------------------0--2---------------9h-10-9-|
---0--2--3--------------<>12-----------------|
------------------2--1--------<>19-----------|
---0--2--4-----------------------------------|
------------0--2-----------------------------|
---5-----------------2-----------------------|

42   E  E    E  E  E    E    E  E    E  E     Q.     E  E  E  E  Q    E
---<>7-----<>5--------<>3--<>3-----<>2-----|-----------------------------|
-----8-------7----------5----3-------2-----|-----------------------------|
-----7-------6----------4----4-------0--2--|---------0--0--2--2-------2--|
-----9-------7----------5----5-------2-----|--4------------------4-------|
--------0-------0--0------------0----------|--0------2--2--4--4--5-------|
-------------------------------------------|--0--------------------------|

44 E  E  E  E  Q      E    E    E    E
------------0--2------------------------|
---------------3----<>3--<>2--<>3--<>2--|
---4--6--7-----2------------------------|
---4-----------0------------------------|
---5-----------0------------------------|
---6------------------------------------|

                                      |-3-|
45   E    E    E    E    E    E    E  S S S E    E
------------------<>0-------<>7--<>2-----------<>0--|
-----------------------<>7---------2----------------|
---<>4--<>6--<>7-------------------3----------------|
-----4-----------------------------5----------------|
-----5-----------------------------0--0-0-0-0-------|
-----6----------------------------------------------|

                                |----3----|
46  E    E    E  S S E    E    E    E    E    E  E
--<>2--<>3--<>2---------<>0--<>2--<>5--<>3--<>2-----|
----3---------2----------------3--------------2-----|
----4---------3----------------4--------------3--2--|
----5---------5----------------5--------------5-----|
----0------------0-0-0------------------------------|
----------------------------------------------------|

47 Q.     E  E  E  E  Q    E     E   E  Q    E  S  S E  E  Q
---2------3--3--5--5--2----5--|--7--10--9-------7----7----------|
---2------------------3-------|--7------7---------10-7--7-------|
---2------4--4--6--6-------6--|--7------7------------7-----7----|
---4--------------------------|--9------7------------6----------|
---0--------------------------|--------------0------------------|
---0--------------------------|---------------------------------|

   |--3--|  |--3--|
49 E  E  E  E  E  E  E  E  Q      Q         H        E  E  E  E    Q
---7--5-----------5--5----------<>3----|--<>2--------0------------------|
---5-----8--7--8--------3--3------3----|----2-----------3--2--3--<>0----|
---6-----------------2------------0----|--------------------------------|
---5-----------------0-----------------|----4----------------------0----|
---7------------------------------2----|----0---------------------------|
---5-----------------4-----------------|---------------------------5----|

              |--3--|  |--3--|
51  Q    Q    E  E  E  E  E  E  Q       E  E  E  E  E  E  Q    E  E
-----------------------------0--2----|-----------0--2--3--5-------0--|
--------------------0--2--3-----0----|--0--2--3-----3----------3-----|
--<>2---------0--2-------------------|--------1-----2-----2----------|
----0---------0--------4--------0----|--4-----------0-----0----4-----|
--------------2--------0-------------|--5--4--2-----0----------2-----|
----4----0----------------------6----|-----------------5--4----------|

           NH    |--3--|    |----3----|
53 Q       E  E  E  E  E    E    E    E    E    E
---2----------0-----7----------<>7------------<>0--|
---0----<>12-----7-----7--<>7-------<>7--<>7-------|
---2-----------------------------------------------|
---0-----------------------------------------------|
---2-----------------------------------------------|
---2-----------------------------------------------|

                         |-3-| |-3-| |-3-|
54  Q      Q.     E  S S S S S S S S S S S
--<>2--------------------------------------|
----0----<>0-------------------------0-2-3-|
----0----------------------------0-2-------|
----0----------------------0-2-4-----------|
----2-------------2--0-2-4-----------------|
----2--------------------------------------|

   ^
   |--3-| |--3-| |--3-| |--3-| |---3--|
55 S  S S S  S S S  S S S  S S E  E   E   E   Q     E
---0h-2-0-2p-0-2-3h-5-3-5p-3-5-7--8--10---L--12----12--|
---1---------------------------------------------------|
---0---------------------------------------------------|
---2---------------------------------------------------|
---0---------------------------------------------------|
---0---------------------------------------------------|

56  E   S  S  Q     E   S  S  S  S  S  S  E   S S
---12--10-12-12--------12-10-12-13-12-10-12--10-8-|
---10--------10---------------9----------10-------|
---10--------10--------------10----------10-------|
---10---------9---------------9----------10-------|
----0--------------10-----------------------------|
----0---------------------------------------------|

                                                |--3--|  |--3--|
57  E  S  S  Q    E  S S Q.     E     Q    Q    E  E  E  E  E  E  E  E
---10--8-10-10-------8-6-5---------|--5----1----L--0-----1--0-----1--0--|
----8--------8-----------3------6--|------------------3--------3--------|
----8--------8------------------3--|--2----1----L--------1--------1-----|
----8--------7-----------3------0--|--0----0----L--------0--------0--2--|
------------------8------1---------|---------------3--2-----3--2--------|
--------------------------------5--|--3----2----L-----------------------|

      |-3-|    |-3-|            |-3-|
59 E  S S S E  S S S E  Q    E  S S S E
---0--------------------3----1--0-0-0-0--|
---2--------------------3-------0-0-0-2--|
---2--------------------4-------0-0-0-2--|
---2--------------------0-------0-0-0-2--|
---0--0-0-0-0--0-0-0-0--0-------0-0-0-0--|
-----------------------------------------|

   |-3-|    |-3-|               |-3-|
60 S S S E  S S S E  E  Q    E  S S S E
---------------------3--3----1--0-0-0-0--|
---------------------3--3-------0-0-0-2--|
---------------------4--4-------0-0-0-2--|
---------------------0--0-------0-0-0-2--|
---0-0-0-0--0-0-0-0--0--0-------0-0-0-0--|
-----------------------------------------|

   |-3-| |--3-| |--3-| |--3-| |--3-| |-3-| |-3-| |-3-| |-3-|
61 S S S S  S S S  S S S  S S S  S S S S S S S S S S S S S S E
-------------------------------------------------0---0---0-2-5--|
---------------------------------------------0-2---2---2--------|
----------------------------2--------------2--------------------|
-----------------------2h-4------------2-4----------------------|
---0---0-2p-0-2-4p-2-4-------------0-4--------------------------|
-----2------------------------2h-4------------------------------|

      |-3-|    |-3-|                         |-3-|    |-3-|
62 E  S S S E  S S S E  Q    E  S S E     E  S S S E  S S S E  Q    E  S S E
---1--------------------3----3--1-1-1--|--1--1-1-1-1--1-1-1-1--3----3--2-2-2--|
---3--------------------5----5--3-3-3--|--3--3-3-3-3--3-3-3-3--5----5--3-3-3--|
---3--------------------5----5--3-3-3--|--3--3-3-3-3--3-3-3-3--5----5--4-4-4--|
---3--------------------5----5--3-3-3--|--3--3-3-3-3--3-3-3-3--5----5--4-4-4--|
---0--0-0-0-0--0-0-0-0--0----0--0-0-0--|--0--0-0-0-0--0-0-0-0--0----0--0-0-0--|
---------------------------------------|--------------------------------------|

   |-3-|  |-3-| |--3-| |-3-| |--3-| |-3-| |-3-| |-3-| |-3-|
64 S S S  S S S S  S S S S S S  S S S S S S S S S S S S S S E
----------------------------------------------0---0---0---7-7--|
----------------------------------0-----2---2-------7---7------|
--------------------------------------4---4-----6--------------|
------------2------------2-4-2h-4---4--------------------------|
---2---2h-4---4-2h-4-2-4---------------------------------------|
-----4---------------------------------------------------------|

      |-3-|    |-3-|                         |-3-|    |-3-|
65 E  S S S E  S S S E  Q    E  S S E     E  S S S E  S S S E  Q    E  S S E
---3--3-3-3-3--3-3-3-3--3----3--3-3-3--|--6--6-6-6-6--6-6-6-6--3----3--3-3-3--|
---4--4-4-4-4--4-4-4-4--3----3--4-4-4--|--5--5-5-5-5--5-5-5-5--4----4--4-4-4--|
---5--5-5-5-5--5-5-5-5--4----4--3-3-3--|--5--5-5-5-5--5-5-5-5--5----5--5-5-5--|
---5--5-5-5-5--5-5-5-5--5----5--5-5-5--|--5--5-5-5-5--5-5-5-5--4----4--4-4-4--|
---0--0-0-0-0--0-0-0-0--0----0--0-0-0--|--0--0-0-0-0--0-0-0-0--0----0--0-0-0--|
---------------------------------------|--0--0-0-0-0--0-0-0-0--0----0--0-0-0--|

      |--3-| |--3-|    |--3-|    |--3-|
67  E  S  S S S  S S E  S  S S E  S  S S E  E  E
---3--1h-3-1-0h-1-0---------------------3--6--6--|
---3----------------3-------3-3--3h-5-6----4--4--|
---3-------------------3h-5----------------5--5--|
---5---------------------------------------4--4--|
---5---------------------------------------0--0--|
---5---------------------------------------0--0--|

      |-3-| |-3-| |-3-| |-3-| |-3-|    |--3-|
68 E  S S S S S S S S S S S S S S S E  S  S S E  E
---3---------------------------------------------1--|
---3----------------------------1-3-4-------4-4-----|
---3----------------------0-2-3-----5--5h-7---------|
---5----------------0-2-4-L-L-L-L-L-6---------------|
---5----------0-1-3-----------------6---------------|
---5--0-2-4-5-----------------------0---------------|

   |-3-|    |--3-|    |-3-| |-3-| |-3-| |-3-| |-3-| |-3-|
69 S S S E  S  S S E  S S S S S S S S S S S S S S S S S S
---1-1-1-1--------------------------------------------1-2-|
---1-1-1-1--1h-3-4-4----------------------------1-3-4-----|
---2-2-2-2----------------------------------2-3-----------|
---4-4-4-4--------------------------0-1-3-4---------------|
---0-0-0-0--------------------0-1-3-----------------------|
---0-0-0-0------------0-1-3-4-----------------------------|

   |-3-| |-3-| |-3-| |-3-| |-3-| |-3-| |-3-| |-3-| |-3-| |-3-|
70 S S S S S S S S S S S S S S S S S S S S S S S S S S S S S S
-----------1-2---------1-2---------1-2-------1-2-------1-2-3-3-|
-----1-3-4-------1-3-4-------1-3-4-----1-3-4-----1-3-4---------|
---------------------------------------------------------------|
---------------------------------------------------------------|
---------------------------------------------------------------|
---------------------------------------------------------------|

71 E  S S S S S S S S E  S S S S S S S S
---3------------0--------------0-1-0-----|
---3------3---1-------6--L-8-6-------3---|
---3----3---0-------3--------------------|
---5--3-----------7--------------------0-|
---5-------------------------------------|
---5-------------------------------------|

72 S S  S S S S S S S S  S S S S S S S S S S
-----------------------------------------6-6-|
----------------3----------------3---3-6-----|
----------2---2------------3---3---3---------|
-----0h-3---3---------0h-3---3---------------|
---------------------------------------------|
---3--------------3-2------------------------|

      |-3-|    |-3-|            |-3-|
73 E  S S S E  S S S E  Q    E  S S S E
---6-------------------------------------|
---6-------------------------------------|
---7-------------------------------------|
---6-------------------------------------|
------7-7-7-7--7-7-7-7--8----7--7-7-7-7--|
-----------------------------------------|

   |--3-| |-3-| |--3-| |-3-| |--3-| |-3-|  |--3--|  |--3-|  |--3--|  |--3--|
74 S  S S S S S S  S S S S S S  S S S S S  S   S S  S  S S  S  S  S  S  S  S
----------------------------------------0----------------8-10-12-15-13-12-10-|
--------------------------------------3---------------11---------------------|
---------------------0------------3-5-----12p-10-9-10------------------------|
----------------0h-2---3-2-0-2h-3--------------------------------------------|
------------1-3--------------------------------------------------------------|
---2p-0-2-3------------------------------------------------------------------|

      |-3-|    |-3-|                         |-3-|    |-3-|
75 E  S S S E  S S S E  Q    E  S S E     E  S S S E  S S S E  Q    E  S S E
--12--0-0-0-0--0-0-0-0--4----0--0-0-0--|--5--5-5-5-5--5-5-5-5--7----7--0-0-0--|
------0-0-0-0--0-0-0-0--3----0--0-0-0--|--5--5-5-5-5--5-5-5-5--5----5--0-0-0--|
------1-1-1-1--1-1-1-1--3----1--1-1-1--|--5--5-5-5-5--5-5-5-5--5----5--0-0-0--|
------0-0-0-0--0-0-0-0--3----0--0-0-0--|--7--7-7-7-7--7-7-7-7--5----5--0-0-0--|
------2-2-2-2--2-2-2-2--0----2--2-2-2--|--7--7-7-7-7--7-7-7-7--7----7--5-5-5--|
------2-2-2-2--2-2-2-2--0----2--2-2-2--|--7--7-7-7-7--7-7-7-7--5----5--5-5-5--|

      |-3-|    |-3-|
77 E  S S S E  S S S E  Q    E  S S E     Q    H        Q    Q
---0--0-0-0-0--0-0-0-0--3----0--0-0-0--|--5----5------------------|
---0--0-0-0-0--0-0-0-0--0----0--3-3-3--|--5----5--------5---------|
---2--2-2-2-2--2-2-2-2--1----2--1-1-1--|--5----5--------5---------|
---3--3-3-3-3--3-3-3-3--0----3--0-0-0--|--7----7--------7----7----|
---3--3-3-3-3--3-3-3-3--2----3--2-2-2--|--7----7--------7----7----|
---3--3-3-3-3--3-3-3-3--2----3--2-2-2--|--7----7--------7----7----|

79 Q.     E  E  E  E  E  E  E     Q.     E  E  E  E  E  E  E
-------------------------------|---------------------------5--|
-------------------------------|---------------------2--1-----|
-------------------------------|------------------2-----------|
----------------------------2--|--2------4--3--2--------------|
---0------------------0--3-----|------------------------------|
----------2--4--3--2-----------|------------------------------|

81 Q    E  E  E  E  E  E  Q       E  E  E  E  Q    Q.     E
---0----------0--1--0--5--0----|--------------------------7--|
---1-------3--0----------------|-----3-----1--0--------------|
---2----------0-----2----------|--0-----------1--------------|
---3----2-----0-----3----------|--2-----4-----2--------------|
--------------------3----------|--2-----0-----2--------------|
-------------------------------|-------------------2---------|

                                                              |-3-|
83 E  E   Q.      E   E  E  Q        S  S E  E   E  E  E   E  S S S E  E
---7--8--10------12--10--8--7----|------------------7--9--10--------------|
---7------9------10---9--7--6----|------------------7------7--------------|
---7------9------10---9--7--7----|------------------7------7-----------6--|
---7------9------10---9--7--6----|-----------0------9------9--9-9-9-9-----|
---------------------------------|--10p-8-7---------9------9--------------|
---------------------------------|--------------10--9------7--------------|

                                             |-3-|
85 E  E  Q     S S  E   Q     S  S  E     E  S S S E  E  E  E  E  S S E  E
---2--0-------10-8---------------------|--5-----------3--5--8--5------------|
---0-----3-----8---11--11----11-10-10--|--3-----------1--3--5--6---------8--|
---------0-----8--------------8--------|--3-----------2--3--6--7------------|
---0-----1-----8-------------10--------|--3--------------------8------------|
---------1--------------------9--------|--5---------------------------------|
---5-----------------------------------|--3--0-0-0-0--------------5-5-5-----|

             |--3--|
87 Q.     E  E  E  E  Q    Q       E  E  E   E     E     E     Q       Q
---1------3--5--3--1--0---------|--------0------<>12--------<>11------------|
---2------------------2---------|-----4-----10--------<>10----------<>11----|
---0------------------2---------|--2----------------------------------------|
----------------------2---------|-------------------------------------------|
---1------------------0---------|--4----------------------------------------|
---------------------------5----|--1----------------------------------------|

                                                              NH
89  Q.     E  E  E  E  E  E  E     Q.     E  E  E  E  E  E    E
--<>5---------------------------|---------------------2----------|
--------------------------------|---------0--------3--3--6-------|
-----------------------------2--|--2---------3--2-----2--3--<>7--|
-----------------------0--3-----|--0------0--0--------0--3-------|
-----------0--2--1--0-----------|--1------------------0--5-------|
----0---------------------------|---------5--3--------0--5-------|

    NH
91  Q.     E  E  E  E   E  Q       E  Q    E  H        E  E
-----------3--5--6--5--10--5----|--L--3----1--0-----------0--|
-----------3--5--6--5--10--5----|--L--0-------2--------------|
-----------3--5--7--5--10--5----|--L--1-------2--------------|
--<>7---------------------------|-----0-------2--------------|
--------------------------------|-----2-------0--------------|
--------------------------------|-----2----------------------|

      |--3-| |--3-|    |--3-|    |--3-|
93 E  S  S S S  S S E  S  S S E  S  S S E  E  E
---0---------------------------------------------|
---0---------------------------------------------|
---2------------------------------------0--0--2--|
---3--2h-3-2-0h-2-0---------0-0--0h-2-3----2--2--|
---0----------------3--2h-3----------------3--2--|
---0---------------------------------------4-----|

      |--3-| |--3-|    |--3-|    |--3-|
94 E  S  S S S  S S E  S  S S E  S  S S E  E  E
-------------------------------------------------|
---0---------------------------------------0--2--|
---0----------------------------------0-2--0--0--|
---2--4h-5-4-2h-4-2-0-------2-2--2h-4------0--2--|
---2-------------------4h-5-------------------0--|
---2---------------------------------------2-----|

      |--3-| |--3-|       |--3-|       |--3-|
95 E  S  S S S  S S E  E  S  S S E  E  S  S S E
-----------------------3--3p-1-0----5--5p-3------|
---3--1h-3-1-0h-1-1----1---------3--3-------6-6--|
---2----------------2--2------------3------------|
---3-------------------0------------3------------|
---0-------------------0------------0------------|
---0-------------------0------------0------------|

96 S  S E  S  S E  S S S S S S S S S S S S
---6p-5----6p-5----6-5-3-6-5-3-6-5-3-6-5-3-|
---5----8--5----8--------------------------|
---5-------5-------------------------------|
---5-------5-------------------------------|
---0-------0-------------------------------|
---0-------0-------------------------------|

      |-3-|         |-3-| |-3-|       tr
97 E  S S S E  Q    S S S S S S E  E  E
---5--5-5-5-5--5----5-5-5-5-5-5-5--5--------|
------5-5-5-5--5----5-5-5-5-5-5-5--5--------|
------7-7-7-7--7----7-7-7-6-6-6-6--6--------|
------5-5-5-5--5----5-5-5-5-5-5-5--5--------|
------7-7-7-7--7----7-7-7-7-7-7-7--7--0(2)--|
------7-7-7-7--7----7-7-7-7-7-7-7--7--------|

   Marcado
98 E       S S S S S S S S E  S S S S S S  S S
-----------------------------------------------|
-----------------------------------------------|
---------------------0-----2--L-4-2-0-2--------|
---------------4---0-----0--------------4p-2---|
-------------5---2-----4---------------------0-|
---0-------7-----------------------------------|

99 S S S S S S S S S S S S S S S S S S S S
-------------------------------------------|
-------------------------------------------|
---------------0-----2-----0---------------|
---------4---0-----0-----0-------4-L-----0-|
-------5---2-----4-----2-------5-------0---|
---0-7-----------------------7-------0-----|

100 S S S S S S S S S S E  S S S S S S S  S
--------------------------------------------|
----------0-----2-----3---------------------|
--------0-----2-----0-----------------------|
------0-----2-----4-----0--L-2-0---0--------|
---------------------------------4---4-2p-0-|
----5---------------------------------------|

101 S S S S S S S S S S S S S S S S S S S S
--------------------------------------------|
----------2---3-----------1-----------------|
--------2-------2-------0-----4---------2---|
------2-----------0---2---------4-----2-----|
----------------------------------5-3-----2-|
----5-------4-------2-------0---------------|

                    |--3-| |-3-| |-3-| |-3-| |-3-| |-3-|
102 S S S S S S S S S S  S S S S S S S S S S S S S S S S
-----------------------------------------------------0---|
-----------------------------------------------0-2-4---7-|
------0--------------------------1-4-----1-4-------------|
----0-------4-----2--------1-2-4-----2-4-----4-----------|
----------3-----2-----2h-4-------------------------------|
--------7-----5-----4------------------------------------|

    |--3-|    |--3-|    |-3-| |-3-| |-3-| |-3-| |-3-| |-3-|
103 S  S S E  S  S S E  S S S S S S S S S S S S S S S S S S
----4h-7-0----4h-7-0------------7-7---------7-7-----------0-|
-----------7---------7--------7-----------7-------------0---|
----------------------------8-----------8-------------0-----|
----------------------------------------------------0-------|
--------------------------9-----------9-----------4---------|
------------------------9-----------7-----------5-----------|

    |--3-| |-3-| |--3-| |-3-| |--3-| |-3-| |-3-| |-3-| |-3-| |-3-|
104 S S  S S S S S S  S S S S S S  S S S S S S S S S S S S S S S S
---------------------------------------------------------------0-2-|
---------------------------------------------------------0-2-4-----|
-------------------------------------------1-4-----1-4-------------|
-----------1-2-4--------1-2-4--------1-2-4-----2-4-----4-----------|
------2h-4---------2h-4---------2h-4-------------------------------|
----4------------4------------4------------------------------------|

       |-3-|         |--3-| |--3-| |--3-| |-3-| |-3-|
105 E  S S S E  Q    S  S S S  S S S  S S S S S S S S
-------3-3-3-3--3---------0---------------------------|
-------0-0-0-0--0----2h-3---3p-2-0--------------------|
-------0-0-0-0--0----0-------------2p-0---------------|
-------0-0-0-0--0----2------------------4-2-0---------|
-------2-2-2-2--2----0------------------------4-2-0-0-|
-------2-2-2-2--2-------------------------------------|

106 H        E  E  E  E  E  E     Q.      E  E   E   E   E   Q
----2--------L--3--3--5--5--2--|--7------10--9--12--12------------|
----2--------L--------------3--|--8----------8------10--10--10----|
----2--------L--4--4--6--6-----|--7-------9--9------11------------|
----4--------L-----------------|--0----------0-------0------------|
----0--------L-----------------|---------------------0------------|
----0--------L-----------------|---------------------0------------|

    |--3--|  |--3--|
108 E  E  E  E  E  E  E  E  Q      Q        H         E    E    E    E    Q
----7--5--3--2--3--5--5----------<>3----|-<>2-------<>0------------------------|
----5--------4--------6------------3----|---3------------<>3--<>2--<>3---------|
----5--------5--------7--7--7------0----|---2---------------------------<>4----|
----5--------0--------8------------0----|---0-----------------------------4----|
----0-----------------5------------1----|---0-----------------------------5----|
----0-----------------5------------2----|---------------------------------6----|

              |--3--|  |--3--|
110 Q    Q    E  E  E  E  E  E  Q       E  E  E  E  E  E  Q    E  E
-----------------------------0--2----|--------------2--3--5----------|
-----------------------1--3-----3----|--------3--5--3-----3----3--5--|
----2---------0--2--3-----------2----|--3--5--------2--0-------------|
----0---------0-----------------0----|--3-----------------4----4-----|
----0---------1-----------------0----|--5----------------------2-----|
---------0----2----------------------|-------------------------------|

            NH    |--3--|    |----3----|
112 Q       E  E  E  E  E    E    E    E    E    E
----2----------0-----7----------<>7------------<>0--|
----0----<>12-----7-----7--<>7-------<>7--<>7-------|
----2-----------------------------------------------|
----0-----------------------------------------------|
----2-----------------------------------------------|
----2-----------------------------------------------|

                     |-3-| |-3-|  |-3-| |-3-|
113 Q      Q.     E  S S S S S S  S S S S S S    Q.     E  E  E  E  E  E  E
--<>2-------------5---------------------------|------------------------------|
----2----------------4------------------------|------------------------------|
----3----<>3-----------3----------------------|---------------------------2--|
----5----------------------0---7p-6---0-------|--0------------------0--3-----|
----0--------------------6---0------8---0-----|--0------0--2--1--0-----------|
------------------------------------------6-1-|--0---------------------------|

114 Q.     E  E  E  E  E  E   E     Q.       E    E    E    E    E    E     E
-----------------------2--1--10--|--5--------------------------<>2--<>1--<>10--|
--------------------3------------|---------<>0------------<>3------------------|
----2------4--3--2---------------|--------------<>3--<>2-----------------------|
---------------------------------|---------------------------------------------|
---------------------------------|---------------------------------------------|
---------------------------------|---------------------------------------------|

116  H        H        Q       H        H.              W                Q
---<>5--------5-------------|------------------------|------------------------||
--------------6--------3----|--3--------3------------|------------------------||
--------------7--------0----|--2--------2------------|------------------------||
--------------8--------2----|--0--------0------------|------------------------||
-----------------------0----|--0--------0------------|------------------------||
----------------------------|--0--------0------------|--0---------------------||

Duration Legend
---------------
W      - whole note
H      - half note
Q      - quarter note
E      - 8th note
S      - 16th note
T      - 32nd note
.      - dotted note
|-3-|  - triplet - 3 notes played in the time of 2 notes

Tablature Legend
----------------
h  - hammer on
L  - tied note
p  - pull off
s  - slide
^  - brush up
NH - natural harmonic


Login to Edit
Edit
YouTube
Video
View Sheet Music
Sheet
Music
Print
Speed:
Play Intro (login for the full song)
Play
Intro
Sustain:
Download midi (intro) ...

 Rate:
5 star
4 star
3 star
2 star
1 star
 

Comments (0)
 

No comments yet...

Comment on this tab   -   Unhelpful comments are exterminated.
  Your Guest Name:
      [Member Login]
  Comments:
 

Don't understand the tab?
See "How to Read Guitar Tabs".
Supported tags:
<i>italics</i>
<b>bold</b>
<u>underline</u>
<tab>tab lines</tab>
  Are you a spam robot?

If not, solve the equation:




[30052 TabNabbers online]


©2022 TabNabber.com - Musician Supported Contact us Advertising Merchandise Privacy Policy Terms of Use facebook Twitter