TabNabber Tabs   Musician Supported
  Music Tabs
Espa˝ol English
Franšais Русский
guitar

Guitar Tab, Chords



(0 from 0 votes)
28 Views, Last Update 6 days ago new
by: Anonymous
guest
[Guest]
e|-0-1-0----------------------5--|------------------5---------------------------
b|-------3-1-0--------0-------5--|-----5-8--7-6-5---5------------5--------------
g|--------------2--1-----2----5--|---5--------------5----------5-5--8-7-5h7p5---
d|-----------0--------0-------7--|--7------------------------7------------------
a|--------------3--2-----3----7--|--0-----------0--0-------7------------0-------
e|--------------------------0/5--|0/-------------------0/5----------------------
                               

-------|---------------------------------------------0------1---0---5--|------
-------|---------------------0-----0-1---0-1-3---1-3---3-1--1---0---5--|------
-4-0-2-|-----------0-2---0-2-----2--------------------------2---1---5--|------
-------|---------3------------------------------------------3---2---7--|------
-----0-|---0---3---------------0-------2-------3------------3---2---7--|------
-------|1-3--1---------3------------------------------------1---0---5--|------


-------------------------------------------------|----------------------------
-----5-8--7-6-5--4v5----------5------------------|---------5-8--7-6-5----5----
---5-------------3v4--------5-5--8-7-5h7p5-4-0-2-|-------5---------------5----
-7------------------------7----------------------|-----7----------------------
-0------------0---------7------------0---------0-|----/0------------3--3------
----------------------5--------------------------|--0/------------------------


-|--------------------------------3-4-5-|-------------------------------------
-|---0-3--1\0-1\0------0-1------0-----5-|-----------------0-----0-1---0-1-3---
-|-1--------------2\0------2----------5-|-------0-2---0-2-----2---------------
-|------------3-------------------------|-----3-------------------------------
-|-2--------------------------0---------|---3---------------0-------2-------3-
-|---------------------3----------------|-1---------3-------------------------


------0------0-|---0-------0-------0-----0-|---0-------0-------0-----0-|------
--1-3---3-1--1-|-------1-3-----1-3---1-3---|-------1-3-----1-3---1-3---|------
-------------2-|---------------------------|---------------------------|------
---------------|-------------------------3-|-3---3-------3-------------|------
---------------|-3---3-------3-------------|-------------------------0-|------
---------------|---------------------------|---------------------------|------


---0-------0-------0-----1-|---1-------1-------1------1-|---1-------1---------
-------1-3-----1-3---1-3---|-------1-3-----1-3---1-3----|-------1-3-----1-3---
---------------------------|----------------------------|---------------------
---------------------------|--------------------------0-|-0---0-------0-------
-0---0-------0-----------1-|-1---1-------1--------------|---------------------
---------------------------|----------------------------|---------------------


-0-----3-|---3-------3-------3------4-|---4-------4-------4-----|---------5---
---1-3---|-------3-5-----3-5---3-5----|-------0/3-----0/3---0/3-|-5---3-5-----
---------|----------------------------|-------------------------|---3---------
---------|----------------------------|-------------------------|-------------
---------|----------------------------|-------------------------|-------------
-------3-|-3---3-------3------------0-|-0---0-------0-----------|-------------


-------3\---------3-5-6-5-------------------------|-------------5-6-7-5---4---
---3-5------3-5-6---------------------------------|-------7-8-9-----------5---
-3--------3---------------3-2-1\0-----------------|-----7---------------------
----------------------------------3-2-1\0---------|---0-----------------------
------------------------0-----------------4-3-2\1-|-0-----------------0-0-----
--------------------------------------------------|---------------------------


---------9----------------3--5-3-2-|-----------6-7-9-14-12----10-------|------
-----------12-10----------3--------|---------7----------------0---0----|------
-------9---------12-11-9-----------|-------6------------0---0----0-----|------
--------------------------0--------|-2/4/8-----------------------------|------
-1/3-0-----------------------------|-----------------------------------|------
-----------------------------------|-----------------------------------|------


---------7-10-9-12--10--12-10-9-|-------5/7---10-9-10-12---------10-12-10-12--
-------8------------------------|-----------------------------10--------------
-----9--------------------------|-----0-----0--------------11-----------------
--------------------------------|-0-4--------------------0--------------------
---7----------------0-----------|---------------------------------------------
-0------------------------------|---------------------------------------------


-14-----------0--------------------------6-5-8-6-10-9--12----6-5--------------
------------3---3-2-3-2-5-3-6-5-8-6-10-8-------------------5-----5------------
----------2----------------------------------------------6---------6----------
--------2-----------0---------------------------------------------------------
----0-4------------------------------------------------0----------------------
------------------------------------------------------------------------------


-12-10-9-10-12-9-10-12-13---5-6-5------------13-10-----------|----------------
--------------------------6-------6----------------10--------|----------------
------------------------------------7-----------------10-7---|----------------
-----------------------0-----------------------------------7-|----------------
-------------------------------------------------------------|----------------
-------------------------------------------------------------|----------------


-------------------------------------0-1-3-1---0-1-0---0-|-5-5-5--5--5--5--5--
-----------------------------------0---------3-------4---|-5-5-5--5--5--5--5--
-----0-2-0---0-----2---3-2---0---1-----------------------|-6-6-6--6--6--6--6--
---0-------0-----3---------3-----------------------------|-7-7-7--7--7--7--7--
---------------3-----3-------------------------0---------|-7-7-7--7--7--7--7--
-3-----------------------------0-------------------------|-5-5-5--5--5--5--5--


-5--6-5-4-5--5-5-5--5--5--5--5--9/10\9\8/9/10\9\8\9----12---10---9-8-9--|-----
-------------5-5-5--5--5--5--5------------------------------------------|-----
-------------6-6-6--6--6--6--6------------------------------------------|-----
-------------7-7-7--7--7--7--7--7/8-\7\6/7/8-\7\6\7-10----8----7---6-7--|-----
-0-----------7-7-7--7--7--7--7------------------------------------------|-----
-------------5-5-5--5--5--5--5------------------------------------------|-----


----17------------------------------------------------0-----|-0---0-------0---
----14------------------------0-----0-1---0-1-3---1-3---3-1-|---------1/3-----
-2--14--2-----------0-2---0-2-----2-------------------------|-----------------
-2------2---------3-----------------------------------------|-----------------
-0------0---0---3---------------0-------2-------3-----------|-3-3---3---------
----------3---1---------3-----------------------------------|-----------------


-------0--------0--0-------0-------0--------0---0-------0-------0-------------
---1/3-----1/3---------1/3-----1/3-----1/3----------1/3-----1/3-----1/3-------
------------------------------------------------------------------------------
----------------3-3--3-------3-------3----------------------------------------
-3-------3----------------------------------0-0---0-------0-------0-----------
------------------------------------------------------------------------------


-1---1-------1-------1-------1--1---1-------1-------1-------1--3---3-------3--
---------1/3-----1/3-----1/3------------1/3-----1/3-----1/3------------3/5----
------------------------------------------------------------------------------
--------------------------------0-0---0-------0-------0-----------------------
-1-1---1-------1-------1------------------------------------------------------
---------------------------------------------------------------3-3---3--------


-------3--------4---4-------4-------4-------|---------5-------3---------3-5---
---3/5-----3/5----------0/3-----0/3-----0/3-|-5---3-5-----3-5-----3-5-6-------
--------------------------------------------|---3-------3-------3-------------
--------------------------------------------|---------------------------------
--------------------------------------------|---------------------------------
-3-------3------0-0---0-------0-------0-----|---------------------------------


-6-5-5-6\5---------------------------------0----------------------------------
-----------8-6-5-3-2-5-3--2--6--2--------0------------------------------------
-------7------------------0--6--0------2--------------------------------------
---------------5-3-2-5-3--2--5--2----3----------------------------------------
---0----------------------0--0--0--5------------------------------------------
------------------------------------------------------------------------------


Login to Edit
Edit
YouTube
Video
View Sheet Music
Sheet
Music
Print
Speed:
Play Intro (login for the full song)
Play
Intro
Sustain:
Download midi (intro) ...

 Rate:
5 star
4 star
3 star
2 star
1 star
 

Comments (0)
 

No comments yet...

Comment on this tab   -   Unhelpful comments are exterminated.
  Your Guest Name:
      [Member Login]
  Comments:
 

Don't understand the tab?
See "How to Read Guitar Tabs".
Supported tags:
<i>italics</i>
<b>bold</b>
<u>underline</u>
<tab>tab lines</tab>
  Are you a spam robot?

If not, solve the equation:




[613 TabNabbers online]


©2022 TabNabber.com - Musician Supported Contact us Advertising Merchandise Privacy Policy Terms of Use facebook Twitter