TabNabber Tabs   Musician Supported
  Music Tabs
Espa˝ol English
Franšais Русский
bass

Bass Guitar Tab, Chords



(0 from 0 votes)
24 Views, Last Update 4 days ago new
by: Anonymous
guest
[Guest]
e|----------------|
b|----------------|
G|----------5-----|
D|--------5-------|
A|--3--p----------|
E|-------------0--|
 
[Intro]
E|---------|
B|---------|
G|---------|
D|---------|
A|--3------| X4
E|------0--|
 
[Pre-Chorus]
E|--------------|------|------------|
B|--------------|------|------------|
G|--------------|------|------------|
D|--------------|------|------------|
A|--3-----2--3--|---3--|-----3--p---|
E|-----0--------|--0---|--0---------|
 
[Chorus]
E|---------------------------|
B|---------------------------|
G|--------------5------------|
D|----2----4---------7-------|
A|—----------3---------------| X2
E|--0---2---------5----------|
 
E|------------------|
B|------------------|
G|------------------|
D|----2----4--------|
A|-----------3-3-3--|
E|--0---2-----------|
 
[Re-Intro]
E|---------|
B|---------|
G|---------|
D|---------|
A|--3------| X4
E|------0--|


Login to Edit
Edit
YouTube
Video
View Sheet Music
Sheet
Music
Print
Speed:
Play Intro (login for the full song)
Play
Intro
Sustain:
Download midi (intro) ...

 Rate:
5 star
4 star
3 star
2 star
1 star
 

Comments (0)
 

No comments yet...

Comment on this tab   -   Unhelpful comments are exterminated.
  Your Guest Name:
      [Member Login]
  Comments:
 

Don't understand the tab?
See "How to Read Guitar Tabs".
Supported tags:
<i>italics</i>
<b>bold</b>
<u>underline</u>
<tab>tab lines</tab>
  Are you a spam robot?

If not, solve the equation:




[32389 TabNabbers online]


©2022 TabNabber.com - Musician Supported Contact us Advertising Merchandise Privacy Policy Terms of Use facebook Twitter