TabNabber Tabs   Musician Supported
  Music Tabs
Espa˝ol English
Franšais Русский
guitar

Guitar Tab, Chords



(0 from 0 votes)
694 Views, Last Update 1 month ago
by: slickrick
guest
[Guest]
E|-------------------------------------0------0------------------|
B|------2---------------2----------3------3------3---------------|
G|----2-----2-------2-------2---------2------2------2--6p4---4~--|
D|2p4---------4---2---2-------2---0------------------------7-----|
A|---------------------------------------------------------------|
D|---------------------------------------------------------------|
 
 
e|---------------------------------------------------------------|
b|------2---------------2--------0~------------------------------|
g|----2-----2-------2-------2----2~----2---2---2-----2-------6---|
d|2p4---------4---2---2-------2--1~--1---1---1-----0-------0-----|
a|-----------------------------------------------2-------2-------|
d|---------------------------------------------------------------|


Login to Edit
Edit
YouTube
Video
View Sheet Music
Sheet
Music
Print
Speed:
Play Intro (login for the full song)
Play
Intro
Sustain:
Download midi (intro) ...

 Rate:
5 star
4 star
3 star
2 star
1 star
 

Comments (1)
 

slickrick
[Guest]
1 month ago
what

Reply

Comment on this tab   -   Unhelpful comments are exterminated.
  Your Guest Name:
      [Member Login]
  Comments:
 

Don't understand the tab?
See "How to Read Guitar Tabs".
Supported tags:
<i>italics</i>
<b>bold</b>
<u>underline</u>
<tab>tab lines</tab>
  Are you a spam robot?

If not, solve the equation:




[28551 TabNabbers online]


©2022 TabNabber.com - Musician Supported Contact us Advertising Merchandise Privacy Policy Terms of Use facebook Twitter