TabNabber Tabs   Musician Supported
  Music Tabs
Espa˝ol English
Franšais Русский
guitar

Guitar Tab, Chords



(0 from 0 votes)
242 Views, Last Update 1 month ago
by: Michael Jackson
guest
[Guest]
The Only Thing I Know For Real TAB.txt
Who has access

System properties
Type
Text
Size
35 KB
Storage used
35 KB
Location
The Only Thing I Know For Real "Sam"
Owner
Kevin Kerr
Modified
28 Jun 2013 by Kevin Kerr
Created
28 Jun 2013
No description
Viewers can download
                The Only Thing I Know For Real "Jetstream Sam theme"                   


Youtube.com/KevGuitarTutor             Facebook.com/KevGuitarTutor


I was only going to upload the tab for Guitar pro. But seeing as my video as gotten pretty popular. 
I Imagine some people will need the Text form.
Here ya go!

To see my video of me playing this tab, check here => https://www.youtube.com/watch?v=ZvCR-Rx0IQk

TUNING Drop Db (Db Ab Db Gb Bb Eb)




Turn Off Word wrap if it looks all messed up! (open in notepad)
##################Guitar One########################


      S S S S S S S S Q    Q       S S S S S S S S Q    Q       S S S S S S S S Q    Q       S S S S S S S S H          
D#||----------------------------|----------------------------|----------------------------|----------------------------|
A#||----------------------------|----------------------------|----------------------------|----------------------------|
F#||----------------------------|----------------------------|----------------------------|----------------------------|
C#||------------------0---------|------------------0---------|------------------0---------|------------------1---------|
G#||------------------0---------|------------------0---------|------------------0---------|------------------1---------|
C#||--0-0-0-0-0-0-0-0-0---------|--1-1-1-1-1-1-1-1-0---------|--3-3-3-3-3-3-3-3-0---------|--1-1-1-1-1-1-1-1-1b--------|


  S S S S S S S S Q    Q       S S S S S S S S Q    Q       S S S S S S S S Q    Q       S S S S S S S S H          
----------------------------|----------------------------|----------------------------|----------------------------|
----------------------------|----------------------------|----------------------------|----------------------------|
----------------------------|----------------------------|----------------------------|----------------------------|
------------------0----L----|------------------1----L----|------------------3----L----|------------------1---------|
------------------0----L----|------------------1----L----|------------------3----L----|------------------1---------|
--0-0-0-0-0-0-0-0-0----L----|--1-1-1-1-1-1-1-1-1----L----|--3-3-3-3-3-3-3-3-3----L----|--1-1-1-1-1-1-1-1-1b--------|


  PM PM PM PM PM PM PM PM                PM PM PM PM PM PM PM PM                PM PM PM PM PM PM PM PM              
  S  S  S  S  S  S  S  S  E.   E.  E     S  S  S  S  S  S  S  S   E.  E.  E     S  S  S  S  S  S  S  S  E.   E.  E   
--------------------------------------|--------------------------------------|--------------------------------------|
--------------------------------------|--------------------------------------|--------------------------------------|
--------------------------7---10---5--|--------------------------/5---3---2--|--------------------------------------|
--------------------------------------|--------------------------------------|--------------------------7---10---5--|
--------------------------5----8---3--|--------------------------/3---1---0--|--------------------------------------|
--0--0--0--0--0--0--0--0--------------|--1--1--1--1--1--1--1--1--------------|--3--3--3--3--3--3--3--3--7---10---5--|


  PM PM PM PM PM PM PM PM               PM PM PM PM PM PM PM PM                PM PM PM PM PM PM PM PM              
  S  S  S  S  S  S  S  S  E.  E.  E     S  S  S  S  S  S  S  S  E.   E.  E     S  S  S  S  S  S  S  S   E.  E.  E   
-------------------------------------|--------------------------------------|--------------------------------------|
-------------------------------------|--------------------------------------|--------------------------------------|
-------------------------------------|--------------------------7---10---5--|--------------------------/5---3---2--|
--------------------------1---4---1--|--------------------------------------|--------------------------------------|
-------------------------------------|--------------------------5----8---3--|--------------------------/3---1---0--|
--1--1--1--1--1--1--1--1--1---4---1--|--0--0--0--0--0--0--0--0--------------|--1--1--1--1--1--1--1--1--------------|


  PM PM PM PM PM PM PM PM                PM PM PM PM PM PM PM PM                                                     
  S  S  S  S  S  S  S  S  E.   E.  E     S  S  S  S  S  S  S  S  E.  E.  E     W                   W                 
--------------------------------------|-------------------------------------|-------------------|-------------------|
--------------------------------------|-------------------------------------|-------------------|-------------------|
--------------------------------------|-------------------------------------|-------------------|-------------------|
--------------------------7---10---5--|--------------------------1---4---1--|--0----------------|-------------------|
--------------------------------------|-------------------------------------|--0----------------|--L----------------|
--3--3--3--3--3--3--3--3--7---10---5--|--1--1--1--1--1--1--1--1--1---4---1--|--0----------------|--L----------------|


  E  S S S S S S S S S S E  E     E  S S S S S S S S S S E  E     E  S S S S S S S S S S E  E     S S E  S S E  E  E  Q      
-------------------------------|-------------------------------|-------------------------------|----------------------------|
-------------------------------|-------------------------------|-------------------------------|----------------------------|
-------------------------------|-------------------------------|-------------------------------|----------------------------|
-------------------------------|-------------------------------|-------------------------------|----------------------------|
--0----------------------0--2--|--3----------------------5--7--|--5----------------------0--3--|--5-3----3------------------|
--0--0-0-0-0-0-0-0-0-0-0-0--2--|--3--3-3-3-3-3-3-3-3-3-3-5--7--|--5--5-5-5-5-5-5-5-5-5-5-------|------5----5-3--3--5--3b----|


  E  S S S S S S S S S S E  E     E  S S S S S S S S S S E  E     E  S S S S S S S S S S E  E     S S E  E  E  E  E  Q      
-------------------------------|-------------------------------|-------------------------------|---------------------------|
-------------------------------|-------------------------------|-------------------------------|---------------------------|
-------------------------------|-------------------------------|-------------------------------|---------------------------|
-------------------------------|-------------------------------|-------------------------------|---------------------------|
--0----------------------0--2--|--3----------------------5--7--|--5----------------------0--3--|--5-3----3-----------------|
--0--0-0-0-0-0-0-0-0-0-0-0--2--|--3--3-3-3-3-3-3-3-3-3-3-5--7--|--5--5-5-5-5-5-5-5-5-5-5-------|------5-----5--3--5--3b----|


  E  S S S S S S S S S S E  E     E  S S S S S S S S S S E  E     E  S S S S S S S S S S E  E   
-------------------------------|-------------------------------|-------------------------------|
-------------------------------|-------------------------------|-------------------------------|
-------------------------------|-------------------------------|-------------------------------|
-------------------------------|-------------------------------|-------------------------------|
--0----------------------0--2--|--3----------------------5--7--|--5----------------------0--3--|
--0--0-0-0-0-0-0-0-0-0-0-0--2--|--3--3-3-3-3-3-3-3-3-3-3-5--7--|--5--5-5-5-5-5-5-5-5-5-5-------|


  S S E  E  S  E   E.   Q        E  S S S S S S S S S S E  E     E  S S S S S S S S S S E  E   
------------------------------|-------------------------------|-------------------------------|
------------------------------|-------------------------------|-------------------------------|
------------------------------|-------------------------------|-------------------------------|
------------------------------|-------------------------------|-------------------------------|
--5-3----3--------------------|--0----------------------0--2--|--3----------------------5--7--|
------5-----5b-5b--5b---3b----|--0--0-0-0-0-0-0-0-0-0-0-0--2--|--3--3-3-3-3-3-3-3-3-3-3-5--7--|


  E  S S S S S S S S S S S S S S    E  E  E  E  E  E  E  E     Q    E  Q    E  E  E     Q    E  Q    E  E  E   
---------------------------------|--------------------------|------------------------|------------------------|
---------------------------------|--------------------------|------------------------|------------------------|
---------------------------------|--------------------------|------------------------|------------------------|
---------------------------------|--------------------------|--0----0--0----0--0--2--|--3----3--3----3--------|
--5------------------------------|--5--5--5--5--3--3--3--3--|--0----0--0----0--0--2--|--3----3--3----3--5--7--|
--5--5-5-5-5-5-5-5-5-5-5-5-5-5-5-|--5--5--5--5--3--3--3--3--|--0----0--0----0--0--2--|--3----3--3----3--5--7--|


  Q    E  Q    E  E  E     E  E  E  E  E  E  E  E     Q    E  Q    E  E  E     Q    E  Q    E  E  E   
------------------------|--------------------------|------------------------|------------------------|
------------------------|--------------------------|------------------------|------------------------|
------------------------|--------------------------|------------------------|------------------------|
--5----5--5----5--5--2--|--3--3--5--3--2--2--3--2--|--0----0--0----0--0--2--|--3----3--3----3--------|
--5----5--5----5--5--2--|--3--3--5--3--2--2--3--2--|--0----0--0----0--0--2--|--3----3--3----3--5--7--|
--5----5--5----5--5--2--|--3--3--5--3--2--2--3--2--|--0----0--0----0--0--2--|--3----3--3----3--5--7--|


  Q    E  Q    E  E  E     E  E  E  E  E  E  E  E     Q    E  Q    E  E  E     Q    E  Q    E  E  E   
------------------------|--------------------------|------------------------|------------------------|
------------------------|--------------------------|------------------------|------------------------|
------------------------|--------------------------|------------------------|------------------------|
--5----5--5----5--5--5--|--5--5--5--5--3--3--3--3--|--0----0--0----0--0--2--|--3----3--3----3--------|
--5----5--5----5--5--5--|--5--5--5--5--3--3--3--3--|--0----0--0----0--0--2--|--3----3--3----3--5--7--|
--5----5--5----5--5--5--|--5--5--5--5--3--3--3--3--|--0----0--0----0--0--2--|--3----3--3----3--5--7--|


  Q    E  Q    E  E  E     E  E  E  E  E  E  E  E     E  S E  S E  H           E  S E  S E  H           W                 
------------------------|--------------------------|------------------------|------------------------|-------------------|
------------------------|--------------------------|------------------------|------------------------|-------------------|
------------------------|--------------------------|------------------------|------------------------|-------------------|
--5----5--5----5--5--2--|--3--3--5--3--2--2--3--2--|---------------0--------|---------------3--------|--5----------------|
--5----5--5----5--5--2--|--3--3--5--3--2--2--3--2--|--0--0-0--0-0--0--------|--3--3-3--3-3--3--------|--5----------------|
--5----5--5----5--5--2--|--3--3--5--3--2--2--3--2--|--0--0-0--0-0--0--------|--3--3-3--3-3--3--------|--5----------------|


                       <                                                                                        
  H        H           W                   S S S S S S S S S S S S S S S S    S S S S S S S S S S S S S S  S S  
--------------------|-------------------|----------------------------------|-----------------------------------|
--------------------|-------------------|----------------------------------|-----------------------------------|
--------------------|-------------------|----------------------------------|-----------------------------------|
--5--------3--------|--0----------------|----------------------------------|--------------------------8-7------|
--5--------3--------|--0----------------|------------------8-7-------------|------8-7---------------------10-8-|
--5--------3--------|--0----------------|--0-0-0-0-0-0-0-0-----0-0-0-0-0-0-|--0-0-----0-0-0-0-0-0-0-0----------|


  S S S S S S S S S S S S S S S S    S S S S S S S S S S S S S S  S S    S S S S S S S S S S S S S S  S S  
----------------------------------|-----------------------------------|-----------------------------------|
----------------------------------|-----------------------------------|-----------------------------------|
----------------------------------|-----------------------------------|-----------------------------------|
----------------------------------|--------------------------8-7------|--------------------------8-7------|
----------8-7-----8-7-------------|------8-7-----8-7-------------10-8-|----------8-7-----------------10-8-|
--0-0-0-0-----0-0-----0-0-0-0-0-0-|--0-0-----0-0-----0-0-0-0----------|--0-0-0-0-----0-0-0-0-0-0----------|


  S S S S  S S S S S S S S  S S S S    E  S E  S E  S S S S Q       S S S S S S H        E     S S S S S S H        E   
------------------------------------|----------------------------|--------------------------|--------------------------|
------------------------------------|----------------------------|--------------------------|--------------------------|
------------------------------------|----------------------------|--------------------------|--------------------------|
-----------8------------------------|----------------------------|--0-----------0-----------|--3-----------3-----------|
----------10------------------------|--7--7-7--7-7--3------------|--0-----------0-----------|--3-----------3-----------|
--0-0-0-0----0-0-0-0-0-0-0-10-0-5-0-|--7--7-7--7-7----0-5--------|--0-0-0-0-0-0-0--------2--|--3-3-3-3-3-3-3-----------|


  S S S S S S H        E     E.  E.  Q    Q.        S S S S S S H        E     S S S S S S H        E   
--------------------------|----------------------|--------------------------|--------------------------|
--------------------------|----------------------|--------------------------|--------------------------|
--------------------------|----------------------|--------------------------|--------------------------|
--5-----------5--------L--|--1-------1----L------|--0-----------0-----------|--3-----------3-----------|
--5-----------5--------L--|--1-------1----L------|--0-----------0-----------|--3-----------3-----------|
--5-5-5-5-5-5-5--------L--|--1---3---1----L------|--0-0-0-0-0-0-0--------2--|--3-3-3-3-3-3-3-----------|


  S S S S S S H        E     E.  E.  E  Q    Q       S S S S S S S S S S S S S S E     S S S S S S S S S S S S S S E   
--------------------------|-----------------------|---------------------------------|---------------------------------|
--------------------------|-----------------------|---------------------------------|---------------------------------|
--3-----------3--------L--|--2---2---2--5----5----|---------------------------------|---------------------------------|
--3-----------3--------L--|--2---2---2--5----5----|---------------------------------|---------------------------------|
--1-1-1-1-1-1-1--------L--|--0---0---0--3----3----|----------3-5-----3-5------------|----------3-5-----3-5------------|
--------------------------|-----------------------|--0-0-0-0-----0-0-----0-0-0-0-3--|--0-0-0-0-----0-0-----0-0-0-0-8--|


  S S S S S S S S S S S S S S E     H        S S S S S S S S    S S S S S S S S S S S S S S E   
---------------------------------|---------------------------|---------------------------------|
---------------------------------|---------------------------|---------------------------------|
---------------------------------|---------------------------|---------------------------------|
---------------------------------|---------------------------|---------------------------------|
----------3-5-----3-5------------|---------------------------|----------3-5-----3-5---------1--|
--0-0-0-0-----0-0-----0-0-0-0-5--|-----------0-2-0-3-5-3-2-0-|--0-0-0-0-----0-0-----0-0-0-0----|


  S S S S S S S S S S S S S S E     S S S S S S S S S S S S S S E     E  S E  S E  Q    Q     
---------------------------------|---------------------------------|-------------------------|
---------------------------------|---------------------------------|-------------------------|
---------------------------------|---------------------------------|-------------------------|
---------------------------------|---------------------------------|--5--5-5--5-5--3----3----|
----------3-5-----3-5------------|----------3-5-----3-5------------|--5--5-5--5-5--3----3----|
--0-0-0-0-----0-0-----0-0-0-0-3--|--0-0-0-0-----0-0-----0-0-0-0-5--|--5--5-5--5-5--3----3----|


  PM PM           PM PM      PM PM PM PM         PM PM           PM PM                  
  S  S  S  S S  S S  S  S  S S  S  S  S  S  S    S  S  S  S S  S S  S  S S S S S S S S  
----------------------------------------------|----------------------------------------|
----------------------------------------------|----------------------------------------|
----------------------------------------------|------------------------3-2-----2-------|
--3--3--5p-3-5p-3-3--3--5p-3-3--3--3--3--5p-3-|--3--3--5p-3-5p-3-3--3------5-3---5-3-2-|
--1--1--1----1----1--1--1----1--1--1--1--1----|--1--1--1----1----1--1------------------|
----------------------------------------------|----------------------------------------|


  PM PM           PM PM      PM PM PM PM         PM PM           PM PM                                             
  S  S  S  S S  S S  S  S  S S  S  S  S  S  S    S  S  S  S S  S S  S  S S S S S S S S    E  E  E  E  E  E  E  E   
----------------------------------------------|----------------------------------------|--------------------------|
----------------------------------------------|------------------------6-5-3---6-5-3---|--------------------------|
----------------------------------------------|------------------------------5-------5-|--------------------------|
--5--5--7p-5-7p-5-5--5--7p-5-5--5--5--5--7p-5-|--5--5--7p-5-7p-5-5--5------------------|--5--5--5--5--5--5--------|
--3--3--3----3----3--3--3----3--3--3--3--3----|--3--3--3----3----3--3------------------|--5--5--5--5--5--5--0--3--|
----------------------------------------------|----------------------------------------|--5--5--5--5--5--5--------|


  S S E  S S E  E  E  Q        S S S S S S S S S S S S S S E     S S S S S S S S S S S S S S E     W                 
----------------------------|---------------------------------|---------------------------------|-------------------|
----------------------------|---------------------------------|---------------------------------|-------------------|
----------------------------|---------------------------------|---------------------------------|-------------------|
----------------------------|---------------------------------|---------------------------------|--0----------------|
--5-3----3------------------|----------3-5-----3-5------------|----------3-5-----3-5------------|--0----------------|
------5----5-3--3--5--3b----|--0-0-0-0-----0-0-----0-0-0-0-3--|--0-0-0-0-----0-0-----0-0-0-0-1--|--0----------------|


  W                  
-------------------||
-------------------||
-------------------||
--L----------------||
--L----------------||
--L----------------||

##################Guitar Two########################



                                                                                                       W                  
D#||-------|-------|-------|-------|-------|-------|-------|-------|-------|-------|-------|-------|---------------------|
A#||-------|-------|-------|-------|-------|-------|-------|-------|-------|-------|-------|-------|--15~----------------|
F#||-------|-------|-------|-------|-------|-------|-------|-------|-------|-------|-------|-------|---------------------|
C#||-------|-------|-------|-------|-------|-------|-------|-------|-------|-------|-------|-------|---------------------|
G#||-------|-------|-------|-------|-------|-------|-------|-------|-------|-------|-------|-------|---------------------|
C#||-------|-------|-------|-------|-------|-------|-------|-------|-------|-------|-------|-------|---------------------|


   H          Q      E   E      H        E   E.   E.      W                                                                  
----------------------------|--13--------L--15---18---|--18~----------------|-------|-------|-------|-------|-------|-------|
--16~--------16br----L--15--|-------------------------|---------------------|-------|-------|-------|-------|-------|-------|
----------------------------|-------------------------|---------------------|-------|-------|-------|-------|-------|-------|
----------------------------|-------------------------|---------------------|-------|-------|-------|-------|-------|-------|
----------------------------|-------------------------|---------------------|-------|-------|-------|-------|-------|-------|
----------------------------|-------------------------|---------------------|-------|-------|-------|-------|-------|-------|


-------|-------|-------|-------|-------|-------|-------|-------|-------|-------|-----------|-------|
-------|-------|-------|-------|-------|-------|-------|-------|-------|-------|-----------|-------|
-------|-------|-------|-------|-------|-------|-------|-------|-------|-------|-----------|-------|
-------|-------|-------|-------|-------|-------|-------|-------|-------|-------|-----------|-------|
-------|-------|-------|-------|-------|-------|-------|-------|-------|-------|-----------|-------|
-------|-------|-------|-------|-------|-------|-------|-------|-------|-------|-----------|-------|


   |--3--|                                               |--3--|                                            
   S  S  S  S  S  S  S  S  S  S  S  S  S  S  S  S  S     S  S  S  S  S  S  S  S  S  S  S  S  S  S  S  S  S  
--17-13-10-------------13-10-------------13-10-------|--17-13-10-------------13-10-------------13-10-------|
-----------13-10-13-10-------13-10-13-10-------13-10-|-----------13-10-13-10-------13-10-13-10-------13-10-|
-----------------------------------------------------|-----------------------------------------------------|
-----------------------------------------------------|-----------------------------------------------------|
-----------------------------------------------------|-----------------------------------------------------|
-----------------------------------------------------|-----------------------------------------------------|


   |--3--|                                               |--3--|                                            
   S  S  S  S  S  S  S  S  S  S  S  S  S  S  S  S  S     S  S  S  S  S  S  S  S  S  S  S  S  S  S  S  S  S  
--17-13-10-------------13-10-------------13-10-------|--17-13-10-------------13-10-------------13-10-------|
-----------13-10-13-10-------13-10-13-10-------13-10-|-----------13-10-13-10-------13-10-13-10-------13-10-|
-----------------------------------------------------|-----------------------------------------------------|
-----------------------------------------------------|-----------------------------------------------------|
-----------------------------------------------------|-----------------------------------------------------|
-----------------------------------------------------|-----------------------------------------------------|


   |--3--|                                               |--3--|                                            
   S  S  S  S  S  S  S  S  S  S  S  S  S  S  S  S  S     S  S  S  S  S  S  S  S  S  S  S  S  S  S  S  S  S  
--17-13-10-------------13-10-------------13-10-------|--17-13-10-------------13-10-------------13-10-------|
-----------13-10-13-10-------13-10-13-10-------13-10-|-----------13-10-13-10-------13-10-13-10-------13-10-|
-----------------------------------------------------|-----------------------------------------------------|
-----------------------------------------------------|-----------------------------------------------------|
-----------------------------------------------------|-----------------------------------------------------|
-----------------------------------------------------|-----------------------------------------------------|


   |--3--|                                               |--3--|                                            
   S  S  S  S  S  S  S  S  S  S  S  S  S  S  S  S  S     S  S  S  S  S  S  S  S  S  S  S  S  S  S  S  S  S  
--17-13-10-------------13-10-------------13-10-------|--17-13-10-------------13-10-------------13-10-------|
-----------13-10-13-10-------13-10-13-10-------13-10-|-----------13-10-13-10-------13-10-13-10-------13-10-|
-----------------------------------------------------|-----------------------------------------------------|
-----------------------------------------------------|-----------------------------------------------------|
-----------------------------------------------------|-----------------------------------------------------|
-----------------------------------------------------|-----------------------------------------------------|


   |--3--|                                               |--3--|                                            
   S  S  S  S  S  S  S  S  S  S  S  S  S  S  S  S  S     S  S  S  S  S  S  S  S  S  S  S  S  S  S  S  S  S  
--17-13-10-------------13-10-------------13-10-------|--17-13-10-------------13-10-------------13-10-------|
-----------13-10-13-10-------13-10-13-10-------13-10-|-----------13-10-13-10-------13-10-13-10-------13-10-|
-----------------------------------------------------|-----------------------------------------------------|
-----------------------------------------------------|-----------------------------------------------------|
-----------------------------------------------------|-----------------------------------------------------|
-----------------------------------------------------|-----------------------------------------------------|


   |--3--|                                               |--3--|                                                           
   S  S  S  S  S  S  S  S  S  S  S  S  S  S  S  S  S     S  S  S  S  S  S  S  S  S  S  S  S  S  S  S  S  S                 
--17-13-10-------------13-10-------------13-10-------|--17-13-10-------------13-10-------------13-10-------|----|----|----|
-----------13-10-13-10-------13-10-13-10-------13-10-|-----------13-10-13-10-------13-10-13-10-------13-10-|----|----|----|
-----------------------------------------------------|-----------------------------------------------------|----|----|----|
-----------------------------------------------------|-----------------------------------------------------|----|----|----|
-----------------------------------------------------|-----------------------------------------------------|----|----|----|
-----------------------------------------------------|-----------------------------------------------------|----|----|----|


                                                Q.       H         E      Q      E   Q.     Q     
----|----|----|----|----|----|----|----|----|--10-------10---------L--|--------------------------|
----|----|----|----|----|----|----|----|----|--13b------13b--------L--|--13----------------------|
----|----|----|----|----|----|----|----|----|-------------------------|--12b----10--12------L----|
----|----|----|----|----|----|----|----|----|-------------------------|--------------------------|
----|----|----|----|----|----|----|----|----|-------------------------|--------------------------|
----|----|----|----|----|----|----|----|----|-------------------------|--------------------------|


  PM PM PM PM                                                                            
  |--3--|                                                                                
  S  S  S  S  S S S S S S  S S  T  T  S  S  S  S     S  S  S  T  T  S  S   E   H         
-------------------------------13-17-13----------|-----------13-17-13-17S-22b--L--------|
-----------------------------8----------15-------|--------------------------------------|
------------------------7-10---------------14----|--------------------------------------|
-----------5--7-5-----------------------------15-|-----12-15----------------------------|
--5--7--8---------8-7-5--------------------------|--12----------------------------------|
-------------------------------------------------|--------------------------------------|


          |-3-| |--3-| |--3-| |--3-| |--3-| |--3--|  
  S S S S S S S S S  S S S  S S S  S S S  S S  S  S  
----------------------------------------------------|
----------------------------------------------------|
-----------------------7-8-10--------7-8-10-9-10-12-|
----------5-7-8-7-8-10--------7-8-10----------------|
--5-5-7-8-------------------------------------------|
----------------------------------------------------|


   |--3--| |--3--|  |--3--|  |--3--|  |--3--|  |--3--|  |--3--|  |--3--|                                 
   S  S  S S  S  S  S  S  S  S  S  S  S  S  S  S  S  S  S  S  S  S  S  S     Q.        T  Q.      E  S.  
-------------------------------------12-13-15----------12-13-15-17-18-20-|--20br------18-20b------L--L--|
--10-11-13---------10-11-14-10-11-14----------11-12-14-------------------|------------------------------|
-----------9-10-12-------------------------------------------------------|------------------------------|
-------------------------------------------------------------------------|------------------------------|
-------------------------------------------------------------------------|------------------------------|
-------------------------------------------------------------------------|------------------------------|


                            PM PM PM PM PM PM PM PM PM PM PM PM PM PM PM PM  
   W                        S  S  S  S  S  S  S  S  S  S  S  S  S  S  S  S   
--24b----------------|--20g22~-L--L--L--L--L--L--L--L--L--L--L--L--L--L--L--|
---------------------|------------------------------------------------------|
---------------------|------------------------------------------------------|
---------------------|------------------------------------------------------|
---------------------|------------------------------------------------------|
---------------------|------0--0--0--0--0--0--0--0--0--0--0--0--0--0--0--0--|


  PM PM PM PM PM PM PM PM PM PM PM PM PM PM PM PM    PM PM PM PM PM PM PM PM PM PM PM PM PM PM      
  S  S  S  S  S  S  S  S  S  S  S  S  S  S  S  S     S  S  S  S  S  S  S  S  S  S  S  S  S  S  S S  
--------------------------------------------------|------------------------------------------------|
--------------------------------------------------|------------------------------------------------|
--------------------------------------------------|------------------------------------------------|
--------------------------------------------------|------------------------------------------------|
--------------------------------------------------|------------------------------------------------|
--3--3--3--3--3--3--3--3--3--3--3--3--3--3--3--3--|--5--5--5--5--5--5--5--5--5--5--5--5--5--5------|


                              PM PM PM PM PM PM PM PM PM PM PM PM PM PM PM PM  
  H        S S S S S S S S    S  S  S  S  S  S  S  S  S  S  S  S  S  S  S  S   
---------------------------|--------------------------------------------------|
---------------------------|--------------------------------------------------|
---------------------------|--------------------------------------------------|
---------------------------|--------------------------------------------------|
---------------------------|--------------------------------------------------|
-----------0-2-0-3-5-3-2-0-|--0--0--0--0--0--0--0--0--0--0--0--0--0--0--0--0--|


  PM PM PM PM PM PM PM PM PM PM PM PM PM PM PM PM    PM PM PM PM PM PM PM PM PM PM PM PM PM PM PM PM                      
  S  S  S  S  S  S  S  S  S  S  S  S  S  S  S  S     S  S  S  S  S  S  S  S  S  S  S  S  S  S  S  S                       
--------------------------------------------------|--------------------------------------------------|-------------------|
--------------------------------------------------|--------------------------------------------------|-------------------|
--------------------------------------------------|--------------------------------------------------|-------------------|
--------------------------------------------------|--------------------------------------------------|-------------------|
--------------------------------------------------|--------------------------------------------------|-------------------|
--3--3--3--3--3--3--3--3--3--3--3--3--3--3--3--3--|--5--5--5--5--5--5--5--5--5--5--5--5--5--5--5--5--|-------------------|


                                           TP  TP    TP    TP    TP         TP    TP              TP        TP        
                                           E   Q     Q     Q     E      E   Q     H        E      H         H         
-------------------|-------------------|--17--15----17----15----17--|---L--15----17--------L--|--15--------17--------|
-------------------|-------------------|----------------------------|-------------------------|----------------------|
-------------------|-------------------|----------------------------|-------------------------|----------------------|
-------------------|-------------------|----------------------------|-------------------------|----------------------|
-------------------|-------------------|----------------------------|-------------------------|----------------------|
-------------------|-------------------|----------------------------|-------------------------|----------------------|


   TP                                                                                                                       
   W                    S S S S S S S S Q    S S S S    Q    S S S S Q    S S S S    W                   W                  
--20b----------------|-------------------------------|----------------------------|-------------------|-------------------||
---------------------|-------------------------------|----------------------------|-------------------|-------------------||
---------------------|-------------------------------|----------------------------|-------------------|-------------------||
---------------------|------------------0------------|--0------------0------------|--0----------------|--L----------------||
---------------------|------------------0------------|--0------------0------------|--0----------------|--L----------------||
---------------------|--0-0-0-0-0-0-0-0-0----0-0-0-0-|--0----0-0-0-0-0----0-0-0-0-|--0----------------|--L----------------||






Duration Legend
---------------
W - whole
H - half
Q - quarter
E - 8th
S - 16th
T - 32nd
X - 64th
. - note dotted
|-n-|  - n-tuplets


Tablature Legend
----------------
L - tied note
x - dead note
g - grace note
(n) - ghost note
> - accentuded note
NH - natural harmonic
AH - artificial harmonic
TH - tapped harmonic
SH - semi harmonic
PH - pitch harmonic
h - hammer on
p - pull off
b - bend
br - bendRelease
pb - preBend
pbr - preBendRelease
brb - bendReleaseBend
\n/ - tremolo bar dip
\n - tremolo bar dive
-/n - tremolo bar Release up
/n\ - tremolo bar inverted dip
/n - tremolo bar return
-\n - tremolo bar Release down
S - shift slide
s - legato slide
/ -  slide into from below or out of upwards
\ -  slide into from above or out of downwards
~ - vibrato
W - wide vibrato
tr - trill
TP - tremolo picking
T - tapping
S - slap
P - pop
< - fade in
^ - brush up
v - brush down


Login to Edit
Edit
YouTube
Video
View Sheet Music
Sheet
Music
Print
Speed:
Play Intro (login for the full song)
Play
Intro
Sustain:
Download midi (intro) ...

 Rate:
5 star
4 star
3 star
2 star
1 star
 

Comments (0)
 

No comments yet...

Comment on this tab   -   Unhelpful comments are exterminated.
  Your Guest Name:
      [Member Login]
  Comments:
 

Don't understand the tab?
See "How to Read Guitar Tabs".
Supported tags:
<i>italics</i>
<b>bold</b>
<u>underline</u>
<tab>tab lines</tab>
  Are you a spam robot?

If not, solve the equation:




[12827 TabNabbers online]


©2022 TabNabber.com - Musician Supported Contact us Advertising Merchandise Privacy Policy Terms of Use facebook Twitter