TabNabber Tabs   Musician Supported
  Music Tabs
Espa˝ol English
Franšais Русский
guitar

Guitar Tab, Chords



(0 from 0 votes)
346 Views, Last Update 1 month ago
by: Gman
guest
[Guest]
e|---------------------------------------------------
b|-----------0-----------0---------------------------
g|--------2--------2-----------------1--1/2/1--2--2--
d|-----2--------2-----2-----------2------------------
a|--0--------------------------2---------------------
e|--------------------------0------------------------

e|---------------------------------------------------
b|-----------2-----------2---------------------------
g|--------4--------4-----------------1--1/2/1--2--2--
d|-----4--------4-----4-----------2------------------
a|--2--------------------------2---------------------
e|--------------------------0------------------------


Login to Edit
Edit
YouTube
Video
View Sheet Music
Sheet
Music
Print
Speed:
Play Intro (login for the full song)
Play
Intro
Sustain:
Download midi (intro) ...

 Rate:
5 star
4 star
3 star
2 star
1 star
 

Comments (0)
 

No comments yet...

Comment on this tab   -   Unhelpful comments are exterminated.
  Your Guest Name:
      [Member Login]
  Comments:
 

Don't understand the tab?
See "How to Read Guitar Tabs".
Supported tags:
<i>italics</i>
<b>bold</b>
<u>underline</u>
<tab>tab lines</tab>
  Are you a spam robot?

If not, solve the equation:




[14681 TabNabbers online]


©2022 TabNabber.com - Musician Supported Contact us Advertising Merchandise Privacy Policy Terms of Use facebook Twitter