TabNabber Tabs   Musician Supported
  Music Tabs
Espa˝ol English
Franšais Русский
guitar

Guitar Tab, Chords



(5 from 3 votes)
374 Views, Last Update 27 days ago
by: BACHVS
guest

Pro Tabber
[Pro Tabber]
E|--------2--0--2-----2-----------2--0--2-----2-----|--------3--2--3-----3-----------3--2--3-----3-----|--------3--2--3-----3-----------3--2--3-----3-----|--
B|--------------------------------------------------|-----0-----------0-----0-----0-----------0-----0--|-----2-----------2-----2-----2-----------2-----2--|--
G|-----2-----------2-----2-----2-----------2-----2--|--------------------------------------------------|--------------------------------------------------|--
D|--0-----------------------------------------------|--0-----------------------------------------------|--0-----------------------------------------------|--
A|--------------------------------------------------|--------------------------------------------------|--------------------------------------------------|--
D|--------------------------0-----------------------|--------------------------0-----------------------|--------------------------0-----------------------|--

Stave 2:

E|--------2--0--2-----2-----------2--0--2-----2-----|--------2--0--2-----------------------------------|--------0-----0-----0-----------0-----0-----0-----|--
B|-----3-----------3-----3-----3-----------3-----2--|-----------------3--2--3--0--3--2--3--------------|--------------------------------------------------|--
G|--------------------------------------------------|-----2--------------------------------------------|-----7-----7-----7-----7-----7-----7-----7-----7--|--
D|--0-----------------------------------------------|--0-----------------------------------4--7--6--4--|--6-----------------------------------------------|--
A|--------------------------------------------------|--------------------------------------------------|--------------------------------------------------|--
D|--------------------------0-----------------------|--------------------------------------------------|--------------------------6-----------------------|--

Stave 3:

E|-----0--5--4--5--0-----0-----0-----0--------------|--------------------------------------------------|-----------------------------------5--4--2--------|--
B|--2-----------------3-----2-----3--------2--0-----|--------3--2--3-----3-----------3--2--3-----3-----|-----------0--------------3--2--0-----------5--3--|--
G|--------------------------------------2--------2--|--------------------------------------------------|-----1--2-----2--1--------------------------------|--
D|--------------------------------------------------|-----4-----------4-----4-----4-----------4-----4--|--------------------4--2--------------------------|--
A|--0-----------------------------------------------|--2-----------------------2-----------------------|--------------------------------------------------|--
D|--------------------------------------------------|--------------------------------------------------|--2-----------------------------------------------|--

Stave 4:

E|-----------5--0--5--------------------------------|--------------------------2-----------------------|--------0--2--3--0--------------0--2--3--0--------|--
B|--2--0--------------2--5--------2--5--3--2--------|--4-----------------4-----------------------4-----|-----0--------------0--------0--------------2--0--|--
G|--------2-----------------2--4--------------4--2--|-----2--5--4--5--2-----2-----2--5--4--5--2-----2--|--0--------------------2--0-----------------------|--
D|--------------------------------------------------|--------------------------------------------------|--2-----------------------------------------------|--
A|--0-----------------------------------------------|--2-----------------------2-----------------------|--------------------------------------------------|--
D|--------------------------------------------------|--------------------------------------------------|--------------------------2-----------------------|--

Stave 5:

E|--------------0-----0-----------------0-----0-----|--------------------------------------------------|--------------------------------------------------|--
B|-----2-----2-----2-----2-----2-----2-----2-----2--|--3--2-----3--2--3--5--2--3--2--------------------|--------------------------------------------------|--
G|--3-----3-----------------3-----3-----------------|--------4-----------------------4--2--------------|--------2-----2-----2-----------2-----2-----2-----|--
D|--------------------------------------------------|--------------------------------------5--4--2-----|-----5-----5-----5-----5-----5-----5-----5-----5--|--
A|--------------------------------------------------|--2-----------------------2--------------------5--|--4-----------------------4-----------------------|--
D|--4-----------------------------------------------|--------------------------------------------------|--------------------------------------------------|--

Stave 6:

E|--------------------------------------------------|--------------------------------------------------|--------3--2--3-----3-----------3--2--3-----3-----|--
B|--------------------------------------------------|--------0-----0-----0-----------0-----0-----0-----|-----2-----------2-----2-----2-----------2-----2--|--
G|--------5--4--5-----5-----------5--4--5-----5-----|-----0-----2-----0-----0-----0-----2-----0-----0--|--------------------------------------------------|--
D|-----4-----------4-----4-----4-----------4-----4--|--------------------------0-----------------------|--0-----------------------0-----------------------|--
A|--5-----------------------5-----------------------|--------------------------------------------------|--------------------------------------------------|--
D|--------------------------------------------------|--0-----------------------0-----------------------|--------------------------------------------------|--

Stave 7:

E|--------2--0--2-----------------------------------|--------------------------------------------------|--------------------------------------------------|--
B|-----------------3--2--0--------------------------|--------------------------------------------------|-----------0--------0--------------0--------0-----|--
G|-----2--------------------2--0--------------------|-----------6--7-----6--7-----------6--7-----6--7--|--------------6--------6--------------6--------6--|--
D|--0-----------------------------4--2--0-----------|--------9--------9--------------9--------9--------|--------7--------7--------------7--------7--------|--
A|-----------------------------------------4--2--0--|-----7-----------------------7--------------------|-----7-----------------------7--------------------|--
D|--------------------------------------------------|--6-----------------------6-----------------------|--5-----------------------5-----------------------|--

Stave 8:

E|--------------------5--------------------------|--------------------0--2--3--0--------0--2--3--5--|--6--5--4--5--5--3--2--3--3--0--------------------|--
B|--------------5--9-----------------------2--3--|--5--2--------2--3--------------2--3--------------|--------------------------------2--0--------------|--
G|-----------6-----------------------2--4--------|--------2--4--------------------------------------|--------------------------------------2-----------|--
D|--------7-----------------2--4--5--------------|--------------------------------------------------|-----------------------------------------2--4--5--|--
A|-----7-----------------0-----------------------|--0-----------------------------------------------|--0-----------------------0-----------------------|--
D|--5--------------------------------------------|--------------------------------------------------|--------------------------------------------------|--

Stave 9:

E|--------------0--2--3--0--2-----------------------|-----------------0--2-----4--1--0--1--1--0--------|--------------------------------------0--4--5--4--|--
B|-----------2--------------3--3--------------------|--------------3--------3--0-----------------4--5--|--5--3--2--3--3--0--------------0--3--------------|--
G|--------2-----------------2-----2--0--------------|-----------2--------------------------------------|--------------------1--------1--------------------|--
D|-----2--------------------0-----------4--0--2--4--|-----0--4-----------------------------------------|-----------------------4--2-----------------------|--
A|--0-----------------------------------------------|--0-----------------------0-----------------------|--0-----------0-----------------------------------|--
D|--------------------------------------------------|--------------------------------------------------|--------------------------------------------------|--

Stave 10:

E|--5--0-----------0--------------------------------|-----3--2--0-----------------2--0-----------------|-----0-----------------------------------0-----0--|--
B|--------2--0--2--------2--------------------------|--------------3--2--0--------------3--2--0--------|--------3--2--0--------------3--2-----------------|--
G|--------------------2--------2--1-----------------|-----------------------2--0-----------------2--0--|-----------------2--0--------------4--6-----------|--
D|--------------------------2--------4--2--0--------|--------------------------------------------------|--4--------------------4--2-----------------7-----|--
A|--0-----------------------------------------4--2--|--0-----------------------0-----------------------|--0-----------------------0-----------------------|--
D|--------------------------------------------------|--------------------------------------------------|--------------------------------------------------|--

Stave 11:

E|-----------------0-----0-----0-----0-----0-----0--|-----0-----0-----0-----0-----0-----0-----0-----0--|-----0-----0-----0-----0-----0-----0------0-----0--|--
B|-----3--2--0--------------------------------------|--------------------------------------------------|---------------------------------------------------|--
G|--------------6-----------4-----6-----7-----4-----|--4-----6-----7-----4-----6-----------7-----------|--6-----------------6-----7-----9-----11-----------|--
D|--2-----------------7-----------------------------|--------------------------------7-----------9-----|--------7-----9------------------------------------|--
A|--0-----------------------------------------------|--0-----------------------0-----------------------|--0------------------------------------------0-----|--
D|--0-----------------------------------------------|--------------------------------------------------|---------------------------------------------------|--

Stave 12:

E|-----0------0------0-----0------0------0------0------0--|------0------0------0-----0------0-----0------0-----0--|-----0-----0-----0-----0-----
B|------------------------------------------10------------|-------------------------------------------------------|-----------------------------
G|--------11-----12-----------11-----12------------11-----|--12-----11-----12-----9-----11-----9-----11-----7-----|--9-----7-----9-----6-----7--
D|--------------------------------------------------------|-------------------------------------------------------|-----------------------------
A|----------------------0---------------------------------|-------------------------------------------------------|-----------------------------
D|--------------------------------------------------------|-------------------------------------------------------|-----------------------------

Stave 13:

E|--0-----0-----0-----0--|-----0--------------------------------------------|--2-----3-----4-----5-----6-----7-----8------9------
B|-----------------------|--------------1-----2-----3-----4-----5-----6-----|--4-----5-----6-----7-----8-----9-----10-----11-----
G|-----6-----7-----4-----|--6-----2--4--2-----3-----4-----5-----6-----7-----|----------------------------------------------------
D|-----------------------|--------------------------------------------------|----------------------------------------------------
A|-----------------------|-----------------0-----0-----0-----0-----0-----0--|-----0-----0-----0-----0-----0-----0------0------0--
D|-----------------------|--------------------------------------------------|----------------------------------------------------

Stave 14:

E|--10-----------10-----10-----10-----------10-----10-----|--10-----------10-----10-----10-----------10-----10-----|--9-----------9-----9-----9-----------9-----9-----|--10-----------|--
B|--7---7-----7------7------7------7-----7------7------7--|--------------------------------------------------------|--------------------------------------------------|--7------------|--
G|--7-----------------------------------------------------|------9-----9------9------9------9-----9------9------9--|-----9-----9-----9-----9-----9-----9-----9-----9--|--7------------|--
D|---------7--------------------------7-------------------|---------7--------------------------7-------------------|--------7-----------------------7-----------------|--7------------|--
A|--0--------------------------0--------------------------|--0--------------------------0--------------------------|--0-----------------------0-----------------------|--0------------|--
D|--------------------------------------------------------|--------------------------------------------------------|--------------------------------------------------|--0------------|


Login to Edit
Edit
YouTube
Video
View Sheet Music
Sheet
Music
Print
Speed:
Play Intro (login for the full song)
Play
Intro
Sustain:
Download midi (intro) ...

3 Votes
5 star: 100%  (3)
4 star:  (0)
3 star:  (0)
2 star:  (0)
1 star:  (0)
0 star:  (0)
 Rate:
5 star
4 star
3 star
2 star
1 star
 

Comments (2)
 

BA


Admin
[Admin]

27 days ago
@BACHVS all good my man

Reply
BACHVS

Pro Tabber
[Pro Tabber]

27 days ago
hey admin, i forgot to add my ownership and name to this version of prelude ...


Reply

Comment on this tab   -   Unhelpful comments are exterminated.
  Your Guest Name:
      [Member Login]
  Comments:
 

Don't understand the tab?
See "How to Read Guitar Tabs".
Supported tags:
<i>italics</i>
<b>bold</b>
<u>underline</u>
<tab>tab lines</tab>
  Are you a spam robot?

If not, solve the equation:




[11881 TabNabbers online]


©2022 TabNabber.com - Musician Supported Contact us Advertising Merchandise Privacy Policy Terms of Use facebook Twitter