TabNabber Tabs   Musician Supported
  Music Tabs
Espa˝ol English
Franšais Русский
guitar

Guitar Tab, Chords



(0 from 0 votes)
343 Views, Last Update 1 month ago
by: Michael Jackson
guest
[Guest]
e|----------------|----------------|----------------|----------------|
B|------5-----7---|------5-----8---|------5-----7---|----------------|
G|----5-----5-----|----5-----5-----|----5-----5-----|----7-----8-----|
D|--7-----7-------|--7-----7-------|--7-----7-------|--7-----7-------|
A|7---------------|5---------------|7---------------|5-----5---------|
E|----------------|----------------|----------------|------8-----7---|

e|----------------|--------3-------|----------------|----------------|
B|------5-----7---|------5-------8-|------5-----7---|----------------|
G|----5-----5-----|----5-----5-----|----5-----5-----|----7---8-------|
D|--7-----7-------|--7---------7---|--7-----7-------|--7-------7-----|
A|7---------------|5---------------|7---------------|5-----5---------|
E|----------------|----------------|----------------|------8-----10--|

e|----------------|----------------|----------------|----------------|
B|------5-----7---|------5-8-------|------5-----7---|----------------|
G|----5-----5---5-|----5-----5-----|----5-----5---5-|----7-----8-----|
D|--7-----7------7|--7---------7---|--7-----7------7|--7-----7-------|
A|7---------------|5---------------|7---------------|5-----5---------|
E|----------------|----------------|----------------|------8-----7---|

e|----------------|----------------|----------------|----------------|
B|------5-----7-7-|------5-----8---|------5-----7-7-|----------------|
G|----5-----5-----|----5-----5-----|----5-----5-----|----7-----8-----|
D|--7-----7-------|--7-----7-------|--7-----7-------|--7-----7-------|
A|7---------------|5---------------|7---------------|5-----5---------|
E|----------------|----------------|----------------|------7-----5---|



Login to Edit
Edit
YouTube
Video
View Sheet Music
Sheet
Music
Print
Download Midi
Speed:
Download Midi Intro (login for the full song)
Get
Intro
Sustain:
alt 1     alt 2

 Rate:
5 star
4 star
3 star
2 star
1 star
 

Comments (0)
 

No comments yet...

Comment on this tab   -   Unhelpful comments are exterminated.
  Your Guest Name:
      [Member Login]
  Comments:
 

Don't understand the tab?
See "How to Read Guitar Tabs".
Supported tags:
<i>italics</i>
<b>bold</b>
<u>underline</u>
<tab>tab lines</tab>
  Are you a spam robot?

If not, solve the equation:




[83206 TabNabbers online]


©2022 TabNabber.com - Musician Supported Contact us Advertising Merchandise Privacy Policy Terms of Use facebook Twitter