TabNabber Tabs   Musician Supported
  Music Tabs
Espa˝ol English
Franšais Русский
guitar

Guitar Tab, Chords



(0 from 0 votes)
335 Views, Last Update 1 month ago
by: Bernie Sanders
guest
[Guest]
e|----------------|3---------3-----|----------------|----------------|
B|3---------3-----|3---------3-----|1---------1-----|1---------1-----|
G|------2-------2-|------0-------0-|------2-------2-|------2-------2-|x2
D|----0-------0---|----0-------0---|----2-------2---|----2-------2---|
A|----------------|----------------|0-------0-------|----------------|
E|2-------2-------|3-------3-------|----------------|3-------3-------|
 
e|----------------|3---------3-----|----------------|--------3-------|
B|3---------3-----|3---------3-----|0h1-------0-----|0h1-----3-------|
G|------2-------2-|------0-------0-|2---------------|2-------0-------|x2
D|----0-------0---|----0-------0---|------2-------2-|----------------|
A|----------------|----------------|0---------------|0-------2-------|
E|2-------2-------|3-------3-------|----------------|----------------|



Login to Edit
Edit
YouTube
Video
View Sheet Music
Sheet
Music
Print
Download Midi
Speed:
Download Midi Intro (login for the full song)
Get
Intro
Sustain:
alt 1     alt 2

 Rate:
5 star
4 star
3 star
2 star
1 star
 

Comments (0)
 

No comments yet...

Comment on this tab   -   Unhelpful comments are exterminated.
  Your Guest Name:
      [Member Login]
  Comments:
 

Don't understand the tab?
See "How to Read Guitar Tabs".
Supported tags:
<i>italics</i>
<b>bold</b>
<u>underline</u>
<tab>tab lines</tab>
  Are you a spam robot?

If not, solve the equation:




[82710 TabNabbers online]


©2022 TabNabber.com - Musician Supported Contact us Advertising Merchandise Privacy Policy Terms of Use facebook Twitter