TabNabber Tabs   Musician Supported
  Music Tabs
Espa˝ol English
Franšais Русский
guitar

Guitar Tab, Chords



(0 from 0 votes)
189 Views, Last Update 27 days ago
by: Barack Obama
guest
[Guest]
e|------------------------------------------------------------------------|
B|0-0-------0-0-------0-0-------------0-0-------0-0-------0-0-----------4-|
G|------0---------0-------2-0-------------0---------0---------2-0-----4---|
D|--------2---------2---------4-2-----------2---------2-----------4-4-----|
A|----------------------2---2-----2-------------------------2---2---2---2-|
E|--0-0---0---0-0---0-----------0---0---0---0---0-0---0-------------------|
 
e|-------------------------------0---------------------------------------------------|
B|----------------0-0---0-1-0-1----3-1-0-----0-------1-0-----------------------------|
G|--0-----0-2---0------------------------0-----2-1-2-----2-0-0---0-----0-2-0---------|
D|4---2-4-----4----------------------------------------------------4-4-------4-2-----|
A|------------------------3------3-------------0-----0-------------0-----2-------2---|
E|----0-----0-----0---0----------------0---0---------------0---0---------------0---0-|
 
e|--0-0-0-0-----0-------0-0-0-0-----2--------------------------------------------------------|
B|----------3-1---0---0---------4-5---0-1---------------------------1-0----------------------|
G|0---------------------------------------4-2-0-------0-----0-2-1-2-----2-0---0-2---0--------|
D|----------------------------------------------4-2-4---2-4-----------------4-----4---2------|
A|--0-----0-------------0-----0-----0-------------------------2-----2-----------2-------2----|
E|--------------0---0-----------------------------0-----0-----------------0-----------0---0--|


Login to Edit
Edit
YouTube
Video
View Sheet Music
Sheet
Music
Print
Download Midi
Speed:
Download Midi Intro (login for the full song)
Get
Intro
Sustain:
alt 1     alt 2

 Rate:
5 star
4 star
3 star
2 star
1 star
 

Comments (0)
 

No comments yet...

Comment on this tab   -   Unhelpful comments are exterminated.
  Your Guest Name:
      [Member Login]
  Comments:
 

Don't understand the tab?
See "How to Read Guitar Tabs".
Supported tags:
<i>italics</i>
<b>bold</b>
<u>underline</u>
<tab>tab lines</tab>
  Are you a spam robot?

If not, solve the equation:




[91748 TabNabbers online]


©2022 TabNabber.com - Musician Supported Contact us Advertising Merchandise Privacy Policy Terms of Use facebook Twitter