TabNabber Tabs   Musician Supported
  Music Tabs
Espa˝ol English
Franšais Русский
guitar

Guitar Tab, Chords



(0 from 0 votes)
207 Views, Last Update 25 days ago
by: Bill Maher
guest
[Guest]
E|------------------------------
B|------------------------------
G|------------------------------
D|---------------14-14-14-10----
A|10s12-12-12-12-------------12-
E|------------------------------

E|---------------
B|---------------
G|---------------
D|10h12p10-------
A|---------10----
E|------------12-

E|---------------------------------------
B|13-10-------------------------15-12----
G|------12-9-----------------9--------12-
D|-----------12--10----10-12-------------
A|------------------12-------------------
E|---------------------------------------

E|------------------------------------------------------------
B|------------------------------------------------------------
G|12-12-------------------------------------------------------
D|------12----------------------------------------------------
A|----------10-10----10-12-12s14-14-14--14-14-14h15-15-15--15-
E|----------------12------------------------------------------

E|----------------------------------------------------------------
B|15-12-----------15-15-15-12-12-12-12--------15-15-15-12-12------
G|------14-12--------------------------12-12-----------------12s7-
D|------------15--------------------------------------------------
A|----------------------------------------------------------------
E|----------------------------------------------------------------

E|------------10-12-10----10-12-10------------
B|------12-13----------13----------13-10------
G|10-12----------------------------------10-9-
D|--------------------------------------------
A|--------------------------------------------
E|--------------------------------------------

E|--------3---------------------------------------------
B|------3-----------------------------------------------
G|----4-----------------------5-7-----------------------
D|--5-------------------5-7-8------12-12-10-9h10p9------
A|----------------5-7-8----------------------------10-7-
E|3-----------5-7---------------------------------------



Login to Edit
Edit
YouTube
Video
View Sheet Music
Sheet
Music
Print
Download Midi
Speed:
Download Midi Intro (login for the full song)
Get
Intro
Sustain:
alt 1     alt 2

 Rate:
5 star
4 star
3 star
2 star
1 star
 

Comments (0)
 

No comments yet...

Comment on this tab   -   Unhelpful comments are exterminated.
  Your Guest Name:
      [Member Login]
  Comments:
 

Don't understand the tab?
See "How to Read Guitar Tabs".
Supported tags:
<i>italics</i>
<b>bold</b>
<u>underline</u>
<tab>tab lines</tab>
  Are you a spam robot?

If not, solve the equation:




[87646 TabNabbers online]


©2022 TabNabber.com - Musician Supported Contact us Advertising Merchandise Privacy Policy Terms of Use facebook Twitter