TabNabber Tabs   Musician Supported
  Music Tabs
Espa˝ol English
Franšais Русский
guitar

Guitar Tab, Chords



(0 from 0 votes)
151 Views, Last Update 24 days ago
by: AVI
guest
[Guest]
[Verse]
 
 
e|12-10---------------------10--10-10----10---10-10----10-----10-------------|
B|------12-10-------------------------12------------12-----12----------------|
G|------------12-9-[x3]--12--------------------------------------------------|
D|---------------------------------------------------------------------------|
A|---------------------------------------------------------------------------|
E|---------------------------------------------------------------------------|
 
e|12-10----------------------------------------------------------------------|
B|------12-10-----------12--12--12-12--12---12--12--12-12--------------------|
G|------------12-9-[x3]------------------------------------------------------|
D|---------------------------------------------------------------------------| 
A|---------------------------------------------------------------------------|
E|---------------------------------------------------------------------------|   
 
e|12-10----------------------------------------------------------------------|
B|------12-10-----------12--12--12-12--12---12--12--12-12--------------------|
G|------------12-9-[x3]------------------------------------------------------|
D|---------------------------------------------------------------------------| 
A|---------------------------------------------------------------------------|
E|---------------------------------------------------------------------------|  
 
[Chorus]
 
e|---------7-------7------7--------------7--10-7----10-7---10--7-------------|
B|-----10----10------10------10--------8---------8-------8-------8-----------|
G|---9----------9-------9-------9----9---------------------------------------|
D|10-------------------------------------------------------------------------|
A|---------------------------------------------------------------------------|
E|---------------------------------------------------------------------------|
 
e|---------7-------7------7---------------2--------------0-0-----------------|
B|-----10----10------10------10---------2---2----------2---2--4-4------------|
G|---9----------9-------9-------9-----3-------3----1/3--------4-4------------|
D|10--------------------------------4-----------4----------------------------|
A|---------------------------------------------------------------------------|
E|---------------------------------------------------------------------------|
 
 
e|---------7-------7------7--------------7--10-7----10-7---10--7-------------|
B|-----10----10------10------10--------8---------8-------8-------8-----------|
G|---9----------9-------9-------9----9---------------------------------------|
D|10-------------------------------------------------------------------------|
A|---------------------------------------------------------------------------|
E|---------------------------------------------------------------------------|
 
 
e|---------7-------7------7---------7--7-7--7-7-7--7--7-7--7-7---------------|
B|-----10----10------10------10-----7--7-7--7-7-7--7--7-7--7-7---------------|
G|---9----------9-------9-------9---8--8-8--8-8-8--8--8-8--8-8---------------|
D|10--------------------------------7--7-7--7-7-7--7--7-7--7-7---------------|
A|----------------------------------9--9-9--9-9-9--9--9-9--9-9---------------|
E|----------------------------------7--7-7--7-7-7--7--7-7--7-7---------------|
 
 
[Verse]
 
 
e|12-10---------------------10--10-10----10---10-10----10-----10-------------|
B|------12-10-------------------------12------------12-----12----------------|
G|------------12-9-[x3]--12--------------------------------------------------|
D|---------------------------------------------------------------------------|
A|---------------------------------------------------------------------------|
E|---------------------------------------------------------------------------|
 
e|12-10----------------------------------------------------------------------|
B|------12-10-----------12--12--12-12--12---12--12--12-12--------------------|
G|------------12-9-[x3]------------------------------------------------------|
D|---------------------------------------------------------------------------| 
A|---------------------------------------------------------------------------|
E|---------------------------------------------------------------------------|   
 
e|12-10----------------------------------------------------------------------|
B|------12-10-----------12--12--12-12--12---12--12--12-12--------------------|
G|------------12-9-[x3]------------------------------------------------------|
D|---------------------------------------------------------------------------| 
A|---------------------------------------------------------------------------|
E|---------------------------------------------------------------------------|   
 
 
[Chorus]
 
e|---------7-------7------7--------------7--10-7----10-7---10--7-------------|
B|-----10----10------10------10--------8---------8-------8-------8-----------|
G|---9----------9-------9-------9----9---------------------------------------|
D|10-------------------------------------------------------------------------|
A|---------------------------------------------------------------------------|
E|---------------------------------------------------------------------------|
 
e|---------7-------7------7---------2-2-2--4--2-2-------0-0------------------|
B|-----10----10------10------10-----2-2-2--2--2-2-----2---2--4-4-------------|
G|---9----------9-------9-------9---3-3-3--3--3-3---3--------4-4-------------|
D|10--------------------------------4-4-4--4--4-4----------------------------|
A|---------------------------------------------------------------------------|
E|---------------------------------------------------------------------------|
 
 
e|----------------7--------------7-----------7--10-7----10-7---10--7---------|
B|-----10--7-10------10-7---7-10---10------8---------8-------8-------8-------|
G|---9----------9---------9--------------9-----------------------------------|
D|10-------------------------------------------------------------------------|
A|---------------------------------------------------------------------------|
E|---------------------------------------------------------------------------|
 
 
e|---------7-------7------7---------7-7-7-7-7-7-7-7--7-7-7-7-7-7-7-7---------|
B|-----10----10------10------10-----7-7-7-7-7-7-7-7--7-7-7-7-7-7-7-7---------|
G|---9----------9-------9-------9---8-8-8-8-8-8-8-8--8-8-8-8-8-8-8-8---------|
D|10--------------------------------7-7-7-7-7-7-7-7--7-7-7-7-7-7-7-7---------|
A|----------------------------------9-9-9-9-9-9-9-9--9-9-9-9-9-9-9-9---------|
E|----------------------------------7-7-7-7-7-7-7-7--7-7-7-7-7-7-7-7---------|
 
[Outro]
 
e|12-10---------------------10--10-10----10---10-10----10-----10-------------|
B|------12-10-------------------------12------------12-----12----------------|
G|------------12-9-[x3]--12--------------------------------------------------|
D|---------------------------------------------------------------------------|
A|---------------------------------------------------------------------------|
E|---------------------------------------------------------------------------|
 
e|12-10----------------------------------------------------------------------|
B|------12-10-----------12--12--12-12--12---12--12--12-12--------------------|
G|------------12-9-[x3]------------------------------------------------------|
D|---------------------------------------------------------------------------| 
A|---------------------------------------------------------------------------|
E|---------------------------------------------------------------------------|   
 
e|12-10----------------------------------------------------------------------|
B|------12-10-----------12--12--12-12--12---12--12--12-12--------------------|
G|------------12-9-[x3]------------------------------------------------------|
D|---------------------------------------------------------------------------| 
A|---------------------------------------------------------------------------|
E|---------------------------------------------------------------------------|   
 
 
 
 
************************************


Login to Edit
Edit
YouTube
Video
View Sheet Music
Sheet
Music
Print
Download Midi
Speed:
Download Midi Intro (login for the full song)
Get
Intro
Sustain:
alt 1     alt 2

 Rate:
5 star
4 star
3 star
2 star
1 star
 

Comments (0)
 

No comments yet...

Comment on this tab   -   Unhelpful comments are exterminated.
  Your Guest Name:
      [Member Login]
  Comments:
 

Don't understand the tab?
See "How to Read Guitar Tabs".
Supported tags:
<i>italics</i>
<b>bold</b>
<u>underline</u>
<tab>tab lines</tab>
  Are you a spam robot?

If not, solve the equation:




[83274 TabNabbers online]


©2022 TabNabber.com - Musician Supported Contact us Advertising Merchandise Privacy Policy Terms of Use facebook Twitter