TabNabber Tabs   Musician Supported
  Music Tabs
Espa˝ol English
Franšais Русский
guitar

Guitar Tab, Chords



(0 from 0 votes)
198 Views, Last Update 23 days ago
by: Barack Obama
guest
[Guest]
e|----------------------------0 0-----------------------------0 0---|
b|---0-------0-------0---0---0---0---0-------0-------0---0---0---0-0|
g|--0-0-----0-0-----0---0---0-------0-0-----0-0-----0---0---0------0|
d|-0---0---0---0---0---0---0-------0---0---0---0---0---0---0-------0|
a|0-----0-0-----0-----------------0-----0-0-----0-------------------|
e|----------------0---0---0-----------------------0---0---0--------0|

e|----------------------
b|----------------------
g|----------------------
d|--------4-4h5-4-------x4
a|------5---------5-----
e|--3-3-----------------


Login to Edit
Edit
YouTube
Video
View Sheet Music
Sheet
Music
Print
Download Midi
Speed:
Download Midi Intro (login for the full song)
Get
Intro
Sustain:
alt 1     alt 2

 Rate:
5 star
4 star
3 star
2 star
1 star
 

Comments (0)
 

No comments yet...

Comment on this tab   -   Unhelpful comments are exterminated.
  Your Guest Name:
      [Member Login]
  Comments:
 

Don't understand the tab?
See "How to Read Guitar Tabs".
Supported tags:
<i>italics</i>
<b>bold</b>
<u>underline</u>
<tab>tab lines</tab>
  Are you a spam robot?

If not, solve the equation:




[82017 TabNabbers online]


©2022 TabNabber.com - Musician Supported Contact us Advertising Merchandise Privacy Policy Terms of Use facebook Twitter